Song name
# A B C D E F G H I J K L M N O P Q R S T U V W X Y Z

White Stripes - Its True That We Love One Another tab

-------------------------------------------------------------------------------
			     It\'s True That We Love One Another - White Stripes
-------------------------------------------------------------------------------
Tabbed by: Unregistered
Email: unregistered@hotmail.com

so this is my first tab. a little sloppy but you get the idea.


Tuning: STANDARD


       A                                                                                 
                         E
e|---0-------0------0-------0--------0------0------0------------0----0-----0-|
B|---2-------2------2-------2--------2------2------2------------0----0-----0-|
G|---2-------2------2-------2--------2------2------2------------1----1-----1-|
D|---2-------2------2-------2--------2------2------2------------2----2-----2-|
A|-0-------0------0------0-------0-------0-------0--------------2----2-----2-|
E|------------------------------------------------------3--2--0----0-----0---|
                                          D
e|----0-----0-----0-----2-----2-----2-----2-----2-----2----------------------|
B|----0-----0-----0-----1-----1-----1-----1-----1-----1----------------------|
G|----1-----1-----1-----2-----2-----2-----2-----2-----2----------------------|
D|----2-----2-----2--0-----0-----0-----0-----0-----0-------------------------|
A|----2-----2-----2----------------------------------------------------------|
E|-0-----0-----0-------------------------------------------------------------|

and basically jack keeps playing that until the very end and then he plays an A chord
Tap to rate this tab
 
# A B C D E F G H I J K L M N O P Q R S T U V W X Y Z