Song name
# A B C D E F G H I J K L M N O P Q R S T U V W X Y Z

White Stripes - Im Bored tab

The White Stripes - I'm Bored
Live at the High Dive in Champaign, IL 

Chords:						
B5: x244xx							
"D": xxxx76					
"C": xxxx54							
C5: x355xx					
G5: 355xxx

Intro
|----------------------4---4-6-4---4----|
|--(6)-(6)-(6)-(6)-(6)---6-------6---6--|
|---------------------------------------|
|---------------------------------------|
|---------------------------------------|
|---------------------------------------|

|------0--2-2-2-0----0---0----------|
|------------------0---0---0--------|
|-----------------------------4--4--|
|--0--------------------------4--4--|
|--0--------------------------2--2--|
|--0--------------------------------|

|-----6-6-6-4----4--------------|
|--7-----------5---5-5-0--------|
|-------------------------4--4--|
|-------------------------4--4--|
|-------------------------2--2--|
|-------------------------------|
     
|-----------------4-4-4----|
|--5/7--7-7-5--5--------0--|
|--------------------------|
|--------------------------|
|--------------------------|
|--------------------------|

Riff (Play 4 Times)
|----------------|
|--------3-0-3b--|
|--4--4----------|
|--4--4----------|
|--2--2----------|
|----------------|

Verse:
Riff       Riff
I'm bored!
                        Riff   B5 B5
I'm the chairman of the Bored
                  B5  B5
I'm livin' like a dog
              B5  B5
I'm a lengthy monologue
    B5    B5
I'm bored!
Yeah,

Chorus:
C5               G5             N.C. G5 N.C.
I bore myself to sleep at night

I bore myself in broad daylight
           B5 N.C. B5 N.C.
'Cause I'm bored!

Break
|-------6-6-6-4-----4-4-4----------|
|--5/7-----------5--------0--------|
|----------------------------4--4--|
|----------------------------4--4--|
|----------------------------2--2--|
|----------------------------------|
    
|-----------------4-4-4----------|
|--5/7--7-7-5--5--------0--------|
|--------------------------4--4--|
|--------------------------4--4--|
|--------------------------2--2--|
|--------------------------------|

Riff 4 Times

Verse 2:
I'm sick!
I'm sick of all the kicks
I'm sick of all you stiffs
I'm sick of all the dips
I'm bored!

Chorus:
I'm sick of everything I do
I'm sick of everything about you
'Cause I'm bored!
Tap to rate this tab
# A B C D E F G H I J K L M N O P Q R S T U V W X Y Z