Song name
# A B C D E F G H I J K L M N O P Q R S T U V W X Y Z

White Stripes - Jimmy The Exploder tab

Hey. . .

Yeah it sounds much better like this than any other tab.  I found one very similar but
needed to go up a half step and the tabee was very lazy when doing the chrous. Yes, there
3rd chord there in the chorus and and I've also added a live part that Jack plays during 
part about green apples. Enjoy.

Intro:
E)------3-1-----------------------------------|
B)--------------------------------------------|
G)----------3-3(slight bend sounds sweet)-----| ONCE
D)--------------------------------------------|
A)--------------------------------------------|
E)-1-3----------------------------------------|

E)--------------|
B)--------------|
G)-----5/7-5-4--|
D)------------5-| 4x
A)--3-5---------|
E)-3------------|

Verse: The other tab pisses me off. it's lazy. give jack a little bit more credit. also
timing is important as to when to switch chords. It's not a slide but it's very quick.

E)------------------------|
B)------------------------|
G)------------------------|
D)-5-53-3-32--------------|
A)-5-53-3-32--------------| Now Go Back to the verse monkey
E)-3-31-1-10--------------|

Chorus:
E)-3-----------------|
B)-2--3--------------|
G)-3--3--------------|
D)----3--------------|
A)----1--------------| Now Go Back to the verse monkey
E)-------------------|

Monkey Noises!!!
E)--
B)--
G)-- 16x
D)-5
A)-5
E)-3


Green Apples Part:
E)-----------|
B)-----------|
G)-----------|
D)-5-5-33-22-| Repeat This until it gets faster (duh)
A)-5-5-33-22-|
E)-3-3-11-00-|

and sometimes (live) jack likes to do this
Green Apples Part:

E)-2-222-223p2-23p2----------------3----|
B)-3-333-333---33---3-333--33-3333-3----|
G)-2-222-222---22---3-333--33-3333-0----|
D)------------------3-333--33-3333-0----|
A)------------------1-111--11-1111-x----|
E)---------------------------------3----|

Now the VERSE
Now the Chorus
Now more Monkey Noises
Congratulations. You are done.
Tap to rate this tab
# A B C D E F G H I J K L M N O P Q R S T U V W X Y Z