Song name
# A B C D E F G H I J K L M N O P Q R S T U V W X Y Z

White Stripes - Sugar Never Tasted So Good tab

All the other tabs of this song dont sound right to me.
This is how I play it.

Intro/Verse
                                              ...to  me
e-------4-4--4-4--4-4------------4-4--4-4--4-4--4-4--2--|
B-------4-4--4-4--4-4------------4-4--4-4--4-4--4-4--2--|
G-------5-5--5-5--5-5------------5-5--5-5--5-5--5-5--3--|
D----5--6-6--6-6--6-6--(x4)---5--6-6--6-6--6-6--6-6--4--|
A--2-3--6-6--6-6--6-6-------2-3--6-6--6-6--6-6--6-6--4--|
E-------4-4--4-4--4-4------------4-4--4-4--4-4--4-4--2--|

    Yeah.                                     ...to  me
e-------4-4--4-4--4-4------------4-4--4-4--4-4--4-4--2--|
B-------4-4--4-4--4-4------------4-4--4-4--4-4--4-4--2--|
G-------5-5--5-5--5-5------------5-5--5-5--5-5--5-5--3--|
D-------6-6--6-6--6-6---5--(x4)--6-6--6-6--6-6--6-6--4--|
A-------6-6--6-6--6-6-2-3--------6-6--6-6--6-6--6-6--4--|
E-------4-4--4-4--4-4------------4-4--4-4--4-4--4-4--2--|

                                         now if the
e-------4-4--4-4--4-4------------4-4--4-4--4-4--4-4-----|
B-------4-4--4-4--4-4------------4-4--4-4--4-4--4-4-----|
G-------5-5--5-5--5-5------------5-5--5-5--5-5--5-5-----|
D-------6-6--6-6--6-6---5--------6-6--6-6--6-6--6-6-----|
A-------6-6--6-6--6-6-2-3--------6-6--6-6--6-6--6-6-----|
E-------4-4--4-4--4-4------------4-4--4-4--4-4--4-4-----|

    wrinkle..in your brain
e-------4------7------9---|
B-------4------7------9---|
G-------5------8------10--|
D-------6------9------11--|(x4)-listen to song for strum pattern
A-------6------9------11--|
E-------4------7------9---|


e-------4-4--4-4--4-4------------4-4--4-4--4-4--4-4-----|
B-------4-4--4-4--4-4------------4-4--4-4--4-4--4-4-----|
G-------5-5--5-5--5-5------------5-5--5-5--5-5--5-5-----|
D----5--6-6--6-6--6-6--(x3)------6-6--6-6--6-6--6-6-----|
A--2-3--6-6--6-6--6-6------------6-6--6-6--6-6--6-6-----|
E-------4-4--4-4--4-4------------4-4--4-4--4-4--4-4-----|

                     oh what..
e-------4----3----2--------------4-4--4-4--4-4----------|
B-------4----3----2--------------4-4--4-4--4-4----------|
G-------5----4----3--------------5-5--5-5--5-5----------|
D-------6----5----4--------------6-6--6-6--6-6----5-----|
A-------6----5----4--------------6-6--6-6--6-6--2-3-----|
E-------4----3----2--------------4-4--4-4--4-4----------|

                                    oh what..
e-------4-4--4-4--4-4--4----3----2----------------------|
B-------4-4--4-4--4-4--4----3----2----------------------|
G-------5-5--5-5--5-5--5----4----3----------------------|
D-------6-6--6-6--6-6--6----5----4----------------------|
A-------6-6--6-6--6-6--6----5----4----------------------|
E-------4-4--4-4--4-4--4----3----2----------------------|

Then back to the first Intro/Verse pattern, and the rest of
the song is simple enough to figure out.
Tap to rate this tab
 
# A B C D E F G H I J K L M N O P Q R S T U V W X Y Z