Song name
# A B C D E F G H I J K L M N O P Q R S T U V W X Y Z

White Stripes - Im Bound To Pack It Up tab

Intro

Tuning half step down(D#-A#-F#-C#-G#-D#)

Chords:

    D Dsus4 F Fsus4 G Gsus4 C   G   F(ver.2)
D#|-2---3---5---6---7---8---0---3---1-|
A#|-3---3---6---6---8---8---1---0---1-|
F#|-2---2---5---5---7---7---0---0---2-|
C#|-0---0---0---0---0---0---2---0---3-|
G#|-------------------------3---2---3-|
D#|-----------------------------3---1-|

    D  Dsus4  D Dsus4 D    F   Fsus4 F Fsus4 F    G   Gsus4 G Gsus4 G    D  Dsus4  D Dsus4 D
D#|-2--2--3-2-2--3-2-2-2-2/5--5--6-5-5--6-5-5-5-5/7--7--8-7-7--8-7-7-7-7\2--2--3-2-2--3-2-2-2-2|
A#|-3--3--3-3-3--3-3-3-3-3/6--6--6-6-6--6-6-6-6-6/8--8--8-8-8--8-8-8-8-8\3--3--3-3-3--3-3-3-3-3|
F#|-2--2--2-2-2--2-2-2-2-2/5--5--5-5-5--5-5-5-5-5/7--7--7-7-7--7-7-7-7-7\2--2--2-2-2--2-2-2-2-2|
C#|-0--0--0-0-0--0-0-0-0-0/0--0--0-0-0--0-0-0-0-0/0--0--0-0-0--0-0-0-0-0\0--0--0-0-0--0-0-0-0-0|
G#|--------------------------------------------------------------------------------------------|
D#|--------------------------------------------------------------------------------------------|

Verse


D#|-2--2--3-2-2--3-2-2-2-2/5--5--6-5-5--6-5-5-5-5/7--7--8-7-7--8-7-7-7-7\2--2--3-2-2--3-2-2-2-2|
A#|-3--3--3-3-3--3-3-3-3-3/6--6--6-6-6--6-6-6-6-6/8--8--8-8-8--8-8-8-8-8\3--3--3-3-3--3-3-3-3-3|
F#|-2--2--2-2-2--2-2-2-2-2/5--5--5-5-5--5-5-5-5-5/7--7--7-7-7--7-7-7-7-7\2--2--2-2-2--2-2-2-2-2|
C#|-0--0--0-0-0--0-0-0-0-0/0--0--0-0-0--0-0-0-0-0/0--0--0-0-0--0-0-0-0-0\0--0--0-0-0--0-0-0-0-0|
G#|--------------------------------------------------------------------------------------------|
D#|--------------------------------------------------------------------------------------------|
    I've thought about it for a while and I've thought about the many miles but I think 
time that I've gone away

D#|-2--2--3-2-2--3-2-2-2-2/5--5--6-5-5--6-5-5-5-5/7--7--8-7-7--8-7-7-7-7\2--2--3-2-2--3-2-2-2-2|
A#|-3--3--3-3-3--3-3-3-3-3/6--6--6-6-6--6-6-6-6-6/8--8--8-8-8--8-8-8-8-8\3--3--3-3-3--3-3-3-3-3|
F#|-2--2--2-2-2--2-2-2-2-2/5--5--5-5-5--5-5-5-5-5/7--7--7-7-7--7-7-7-7-7\2--2--2-2-2--2-2-2-2-2|
C#|-0--0--0-0-0--0-0-0-0-0/0--0--0-0-0--0-0-0-0-0/0--0--0-0-0--0-0-0-0-0\0--0--0-0-0--0-0-0-0-0|
G#|--------------------------------------------------------------------------------------------|
D#|--------------------------------------------------------------------------------------------|
the feelings that you have for me have gone away it's plain to see and it looks to me 
your pulling away


Chorus
 G             C
   I'm gonna pick it up
 G              C           D  Dsus4  D Dsus4 D D  Dsus4  D Dsus4 D
   I'm gonna pick it up today
 G             C
   I'm bound pack it up
G              C                 F(ver.2)  F(ver.2)/G
   I'm bound pack it up and go away


Verse 2


D#|-2--2--3-2-2--3-2-2-2-2/5--5--6-5-5--6-5-5-5-5/7--7--8-7-7--8-7-7-7-7\2--2--3-2-2--3-2-2-2-2|
A#|-3--3--3-3-3--3-3-3-3-3/6--6--6-6-6--6-6-6-6-6/8--8--8-8-8--8-8-8-8-8\3--3--3-3-3--3-3-3-3-3|
F#|-2--2--2-2-2--2-2-2-2-2/5--5--5-5-5--5-5-5-5-5/7--7--7-7-7--7-7-7-7-7\2--2--2-2-2--2-2-2-2-2|
C#|-0--0--0-0-0--0-0-0-0-0/0--0--0-0-0--0-0-0-0-0/0--0--0-0-0--0-0-0-0-0\0--0--0-0-0--0-0-0-0-0|
G#|--------------------------------------------------------------------------------------------|
D#|--------------------------------------------------------------------------------------------|


D#|-2--2--3-2-2--3-2-2-2-2/5--5--6-5-5--6-5-5-5-5/7--7--8-7-7--8-7-7-7-7\2--2--3-2-2--3-2-2-2-2|
A#|-3--3--3-3-3--3-3-3-3-3/6--6--6-6-6--6-6-6-6-6/8--8--8-8-8--8-8-8-8-8\3--3--3-3-3--3-3-3-3-3|
F#|-2--2--2-2-2--2-2-2-2-2/5--5--5-5-5--5-5-5-5-5/7--7--7-7-7--7-7-7-7-7\2--2--2-2-2--2-2-2-2-2|
C#|-0--0--0-0-0--0-0-0-0-0/0--0--0-0-0--0-0-0-0-0/0--0--0-0-0--0-0-0-0-0\0--0--0-0-0--0-0-0-0-0|
G#|--------------------------------------------------------------------------------------------|
D#|--------------------------------------------------------------------------------------------|
I've found it hard to say to you that this is what I have to do but there is no 
way that I'm gonna stay

D#|-2--2--3-2-2--3-2-2-2-2/5--5--6-5-5--6-5-5-5-5/7--7--8-7-7--8-7-7-7-7\2--2--3-2-2--3-2-2-2-2|
A#|-3--3--3-3-3--3-3-3-3-3/6--6--6-6-6--6-6-6-6-6/8--8--8-8-8--8-8-8-8-8\3--3--3-3-3--3-3-3-3-3|
F#|-2--2--2-2-2--2-2-2-2-2/5--5--5-5-5--5-5-5-5-5/7--7--7-7-7--7-7-7-7-7\2--2--2-2-2--2-2-2-2-2|
C#|-0--0--0-0-0--0-0-0-0-0/0--0--0-0-0--0-0-0-0-0/0--0--0-0-0--0-0-0-0-0\0--0--0-0-0--0-0-0-0-0|
G#|--------------------------------------------------------------------------------------------|
D#|--------------------------------------------------------------------------------------------|
here are so many things you need to know and I wanna tell you before I go but it's hard 
think of just what to say

Chorus
 G             C
   I'm gonna pick it up
 G              C           D  Dsus4  D Dsus4 D D  Dsus4  D Dsus4 D
   I'm gonna pick it up today
 G             C
   I'm bound pack it up
G              C                 F(ver.2)  F(ver.2)/G
   I'm bound pack it up and go away

Verse 3

D#|-2--2--3-2-2--3-2-2-2-2/5--5--6-5-5--6-5-5-5-5/7--7--8-7-7--8-7-7-7-7\2--2--3-2-2--3-2-2-2-2|
A#|-3--3--3-3-3--3-3-3-3-3/6--6--6-6-6--6-6-6-6-6/8--8--8-8-8--8-8-8-8-8\3--3--3-3-3--3-3-3-3-3|
F#|-2--2--2-2-2--2-2-2-2-2/5--5--5-5-5--5-5-5-5-5/7--7--7-7-7--7-7-7-7-7\2--2--2-2-2--2-2-2-2-2|
C#|-0--0--0-0-0--0-0-0-0-0/0--0--0-0-0--0-0-0-0-0/0--0--0-0-0--0-0-0-0-0\0--0--0-0-0--0-0-0-0-0|
G#|--------------------------------------------------------------------------------------------|
D#|--------------------------------------------------------------------------------------------|
I'm sorry to leave you all alone you're sitting silent by the phone but we'd always 
there would come a day

D#|-2--2--3-2-2--3-2-2-2-2/5--5--6-5-5--6-5-5-5-5/7--7--8-7-7--8-7-7-7-7\2--2--3-2-2--3-2-2-2-2|
A#|-3--3--3-3-3--3-3-3-3-3/6--6--6-6-6--6-6-6-6-6/8--8--8-8-8--8-8-8-8-8\3--3--3-3-3--3-3-3-3-3|
F#|-2--2--2-2-2--2-2-2-2-2/5--5--5-5-5--5-5-5-5-5/7--7--7-7-7--7-7-7-7-7\2--2--2-2-2--2-2-2-2-2|
C#|-0--0--0-0-0--0-0-0-0-0/0--0--0-0-0--0-0-0-0-0/0--0--0-0-0--0-0-0-0-0\0--0--0-0-0--0-0-0-0-0|
G#|--------------------------------------------------------------------------------------------|
D#|--------------------------------------------------------------------------------------------|
the bus is warm and softly lit and a hundred people ride in it I guess I'm just another runaway

Chorus
 G             C
   I'm gonna pick it up
 G              C           D  Dsus4  D Dsus4 D D  Dsus4  D Dsus4 D
   I'm gonna pick it up today
 G             C
   I'm bound pack it up
G              C                 F(ver.2)  F(ver.2)/G
   I'm bound pack it up and go away

Outro
                                                    slower
D#|-2--2--3-2-2--3-2-2-2-2/5--5--6-5-5--6-5-5-5-5/7--7--8-7-7--8-7-7-7-7\---------14--|
A#|-3--3--3-3-3--3-3-3-3-3/6--6--6-6-6--6-6-6-6-6/8--8--8-8-8--8-8-8-8-8\------15-----|
F#|-2--2--2-2-2--2-2-2-2-2/5--5--5-5-5--5-5-5-5-5/7--7--7-7-7--7-7-7-7-7\---14--------|
C#|-0--0--0-0-0--0-0-0-0-0/0--0--0-0-0--0-0-0-0-0/0--0--0-0-0--0-0-0-0-0\-0-----------|
G#|-----------------------------------------------------------------------------------|
D#|-----------------------------------------------------------------------------------|
Tap to rate this tab
# A B C D E F G H I J K L M N O P Q R S T U V W X Y Z