Song name
# A B C D E F G H I J K L M N O P Q R S T U V W X Y Z

White Stripes - Prickly Thorn But Sweetly Worn tab

This song is Split up with 2 guitars. At the bottom of the page is the chords that go with this:

Bagpipe Part 1  (0:18 - 0:40):

E|-----------|---------------|--------------|
B|---------7-|-7h8p7-5--7----|------5-------|
G|-----------|-----------7-7~|--5--5-5-3-/7-|x3
D|-----------|---------------|--------------|
A|-----------|---------------|--------------|
E|-----------|---------------|--------------|

Bagpipe Part 1 - x 2  (1:01 - 1:16)
                                  (Between these play D chords)
Bagpipe Part 1 - x 2  (1:40 - 1:52)


Bagpipe Part 2 Solo  (1:53 - 2:16):

e|--------------------10-8-(8)8p7-8-10-10-10-|
B|----7-8-8p7-8-10---------------------------|
G|7h9--------------7-7-----------------------|(1:53 - 1:59) 
D|-------------------------------------------|
A|-------------------------------------------|
E|-------------------------------------------|

e|-----------------------------------|
B|----7-7-8p7---10---------5---------|
G|7h9---------9---7-7~~-5-5--5-3-3/7-| (2:00 - 2:08)
D|-----------------------------------|
A|-----------------------------------|
E|-----------------------------------|

e|---------------------10-8h7-----7----------------|
B|----7--10p8-8h7-7----------10p8--10-8p7-10-------|
G|7h9--7------------7~-----------------------7-7~~-| (2:09 - 2:16)
D|-------------------------------------------------|
A|-------------------------------------------------|
E|-------------------------------------------------|



Bagpipe Part 1 - x 4  (2:35 - 3:05) 
___________________________________________________________________________

During All of this^^^^^^^^^^^^^^^^^^^^^^^^^^^^^^^^^^^^^^^^^
Play These Chords By Acoustic Guitar 1:

e|-2--222--0--3-3-2--0--000---3-3-0-----|
B|-3--333--3--3-3-3--1--111---3-3-1-----|
G|-2--222--2--2-2-2--0--000---0-0-0-----|
D|-0--000--0--0-0-0--2--222-0-2-2-2-----| play throughout the entire song 
A|--------------------------------------| and keep on repeating while the
E|--------------------------------------| other guitar is doing the bagpipe
                                          music...........................


This was all done by ear. Please comment and rate
Tap to rate this tab
 
# A B C D E F G H I J K L M N O P Q R S T U V W X Y Z