Song name
# A B C D E F G H I J K L M N O P Q R S T U V W X Y Z

White Stripes - Offend In Every Way tab

-------------------------------------------------------------------------------
			     Offend In Every Way - White Stripes
-------------------------------------------------------------------------------
Tabbed by: Burgess
Email: hobosogo@gmail.com

Tuning: standard

Inro:

e|----------------------------------------------x----------------------------|
B|----------------------------------------------3----------------------------|
G|--------------------------------0----0--0-2---2--2h3-2-0---0--------------5|
D|0-------5------------3--------0---5---3-----0-0----------3---5------------5|
A|-2-1-0--5----0-1-3---3--3-1-3-----5--------------------------5---0-1-2-3--3|
E|------3-3--3-------1-1------------3--------------------------3-3-----------|

e|---------------------3-------------------------------------------------------|
B|---------------------3-------------------------------------------------------|
G|---------------------4-------------------------------------------------------|
D|----------3----------5-------------------------------------------------------|
A|3-1-0-----3------0-1-5-------------------------------------------------------|
E|------3-1-1--1-3-----3-------------------------------------------------------|

Verse:

e|----------------------------------------------------------------------3-3--|
B|----------------------------------------------------------------------3-3--|
G|------------------------------7-7-7-7-------------5-5-5-5-------------4-4--|
D|5-5-5-5---3-3-3-2---5-5-5-5---7-7-7-7---5-5-5-5---5-5-5-5---3-3-3-3---5-5--|
A|5-5-5-5---3-3-3-3---5-5-5-5---5-5-5-5---5-5-5-5---3-3-3-3---3-3-3-3---5-5--|
E|3-3-3-3---1-1-1-3---3-3-3-3-------------3-3-3-3-------------1-1-1-1---3-3--|
    G5         F5       G5        D5         G5        C5        F5       G

Chorus:

e|----------------------------------------------------x-------------------------|
B|----------------------------------------------------3-------------------------|
G|----------------------------------0-------0---0-2---2-2h3-3-2-0--0-2-0--------|
D|0----0--5-5-5-------3-3-3-------0---5-5-5---3-----0-0-----------3------5-5-3--|
A|-3-1--1-5-5-5-0-1-3-3-3-3-3-1-3-----5-5-5------------------------------5-5-5--|
E|--------3-3-3-------1-1-1-----------3-3-3------------------------------3-3-5--|

e|--------------------------------|
B|--------------------------------|
G|--------5-----------------------|
D|--------5---------3-------5-5---|
A|0-1-2-3-3-1-0-----3---0-1-5-5---|
E|--------------3-1-1-3-----3-3---|

Last part of the chorus might be:
D--------5-5--------------------|
A-----0--5-5--------------------|
E-1-3----3-3--------------------|

Instead of:

D--------5-5--------------------|
A----0-1-5-5--------------------|
E-3------3-3--------------------|

Whichever one sounds better, I couldn't really decide.

Thats pretty much it. The song does the verse and the chorus part 3 times and then ends 
the intro again. If there are any problems let me know.
Tap to rate this tab
# A B C D E F G H I J K L M N O P Q R S T U V W X Y Z