Song name
# A B C D E F G H I J K L M N O P Q R S T U V W X Y Z

White Stripes - Truth Doesnt Make A Noise tab

-------------------------------------------------------------------------------
			     TRUTH DOESN'T MAKE A NOISE - THE WHITE STRIPES
-------------------------------------------------------------------------------
Tabbed by: adam smith
Email: aaohs@hotmail.com

Tuning: standard

i'm just gonna show you what the parts are instead of putting it all in order. it's 
easy to tell where they all go anyway.

the first chord is A minor :
e|---|
B|-1-|
G|-2-|
D|-2-|
A|-0-|
E|---|

riff (this bit is repeated throughout the song)
e|-----------------|---------------3-|
B|---------------1-|---------------3-|
G|---------------2-|---------------0-|
D|---------------2-|---------------0-|
A|-0h2h3/5\3-2p0-0-|-0h2h3/5\3-2p0-2-|
E|-----------------|---------------3-|

the chords for the verse go like this:

  Am  G  C  D
e|----3-----2-|
B|-1--3--1--3-|
G|-2--0--0--2-|
D|-2--0--2--0-|
A|-0--2--3----|
E|----3-------|

CHORUS : C, D, Am, C, D, Em
                       e|---|
                       B|---|
                       G|---|
                       D|-2-|
                       A|-2-|
                       E|-0-|

piano bit:
e|-------------|
B|-------------|
G|-------------|
D|-------------|
A|-0-2-3-2---0-|
E|---------3---|

************************************

| /   slide up
| \   slide down
| h   hammer-on
| p   pull-off

************************************
Tap to rate this tab
 
# A B C D E F G H I J K L M N O P Q R S T U V W X Y Z