Song name
# A B C D E F G H I J K L M N O P Q R S T U V W X Y Z

White Stripes - Were Going To Be Friends tab

-------------------------------------------------------------------------------
		  We're Gonna Be Friends - The White Stripes
-------------------------------------------------------------------------------



Tabbed by: Camster4153                 [sta]Hyperreality

Email:camster4153@hotmail.com



Tuning: Standard


Im telling you, this is correct. If you thinks its wrong send me a tab of how you think it is...

Enjoy!!!

Please rate. :)



INTRO:

e|---------------------------------------------------------------------------|
B|-----------0-------0-------0-----------------------------------------------|
G|---0---0-------0-------0-------0-------------------------------------------|
D|---------------------------------------------------------------------------|
A|---------------------------------------------------------------------------|
E|-3---3---3---3---3---3---3---3---3-----------------------------------------|


Verse:

e|---------------------------------------------------------------------------|
B|---0-------0-------0-------0-------1-------1---0---------------------------|
G|-------0-------0-------0-------0-------0-----------------------------------|
D|---------------------------------------------------------------------------|
A|---------------------------------3---3---3---3-----------------------------|
E|-3---3---3---3---3---3---3---3---------------------------------------------|


e|-------------------2-------------------------------------------------------|
B|-------0-------0-------3---3-------0-------0---0---------------------------|
G|---0-------0---------------------------0-----------------------------------|
D|---------------------------------------------------------------------------|
A|-----------------5---5---3---3---------------------------------------------|
E|-3---3---3---3-----------------2-3---3---3---3-----------------------------|


e|---2-----------------------------------------------------------------------|
B|-------3---3---3-------0-------0-------0-------0---------------------------|
G|-------------------0-------0-------0-------0-------------------------------|
D|---------------------------------------------------------------------------|
A|-5---5---3---3-------------------------------------------------------------|
E|-----------------3---3---3---3---3---3---3---3-----------------------------|


Put this in where ever you want:

e|---------------------------------------------------------------------------|
B|-------3-------3-----------------------------------------------------------|
G|---0-------0---------------------------------------------------------------|
D|---------------------------------------------------------------------------|
A|---------------------------------------------------------------------------|
E|-3---3---3---3-------------------------------------------------------------|



Bridge:

e|---------------------------------------------------------------------------|
B|---1-------1---0-------0-------0-------------------------------------------|
G|-------0-----------0-------0-----------------------------------------------| X 2 
D|---------------------------------------------------------------------------|     
A|-3---3---3---3-------------------------------------------------------------|  
E|-----------------3---3---3---3---------------------------------------------|


e|---------------------------------------------------------------------------|
B|-------2---2-------2-------2---0-------------------------------------------|
G|---2-----------2-------2---------------------------------------------------|
D|---------------------------------------------------------------------------|
A|-0---0---0---0---0---0---0---0---------------------------------------------|
E|---------------------------------------------------------------------------|

e|-----------------------2---------------------------------------------------|
B|---1---1---1---0---3-------3---3-------------------------------------------|
G|---------------------------------------------------------------------------|
D|---------------------------------------------------------------------------|
A|-3---3---3---3---5---5---5---5---------------------------------------------|
E|---------------------------------------------------------------------------|



After another verse, finish with a G chord :


e|--3--|
B|--0--|
G|--0--|
D|--0--|
A|--2--|
E|--3--|


Tap along with your foot, it sounds good.




************************************

| x   Mute note

************************************

Heres the lyrics for those who want them:


fall is here, hear the yell
back to school, ring the bell
brand new shoes, walking blues
climb the fence, book and pens
i can tell that we are gonna be friends

walk with me, suzy lee
through the park, by the tree
we will rest upon the ground
and look at all the bugs we've found
then safely walk to school
without a sound

well here we are, no one else
we walked to school all by ourselves
there's dirt on our uniforms
from chasing all the ants and worms
we clean up and now it's time to learn


numbers, letters, learn to spell
nouns, and books, and show and tell
at playtime we will throw the ball
back to class, through the hall
teacher marks our height against the wall

and we don't notice any time pass
we don't notice anything
we sit side by side in every class
teacher thinks that i sound funny
but she likes the way you sing

tonight i'll dream while i'm in bed
when sill thoughts go through my head
about the bugs and alphabet
and when i wake tomorrow i'll bet
that you and i will walk together again
cause i can tell that 
we are going to be friends 
Tap to rate this tab
# A B C D E F G H I J K L M N O P Q R S T U V W X Y Z