Song name
# A B C D E F G H I J K L M N O P Q R S T U V W X Y Z

White Stripes - Offended In Every Way tab

Offended in every way by the white stripes


Intro and chorus

E------------------------------------------------------------------------------------------------|
B------------------------------------------------------------------------------------------------|
G-------------------------------0---0---0-2---7-2h3-2-0---0-------------5------------------------|
D0---------5-----------3-------0--5---3-----0-7---------3---5-----------5-----------3-----------5|
A--3-1-0---5---0-1-3---3-3-1-3----5-----------5-------------5---0-1-2-3-3-3-1-0-----3-----0-1---5|
E--------3-3-3-------1-1----------3-------------------------3-3-----------------3-1-1-1-3-----3-3|

Verses

E--------------------------------|
B--------------------------------|
G-------------7-------5----------|
D-5---3---5---7---5---5---3---5--|
A-5---3---5---5---5---3---3---5--|
E-3---1---3-------3-------1---3--|
Tap to rate this tab
 
# A B C D E F G H I J K L M N O P Q R S T U V W X Y Z