Song name
# A B C D E F G H I J K L M N O P Q R S T U V W X Y Z

White Stripes - Instinct Blues tab

e|---------------------|  
B|-------15-16b15-13---|
G|-17---------------14-|
D|---------------------|
A|---------------------|
E|---------------------|

e|-----|
B|-----|
G|-----|
D|-----|
A|-12\-|
E|-----|

e|--------------------------|        
B|--------------------------|
G|---0h2~-0--0--------------|
D|-------------2--2-0h2---0-|
A|-0--------------------3---|
E|--------------------------|

e|-------------------------|
B|-------------------------|
G|---0h2-0--0--------------|
D|------------2--0-/2-0-/2-|
A|-0-----------------------|
E|-------------------------|

e|-----------------------------|
B|-----------------------------|
G|---0h2--0--------0h2-0h2-----|
D|-------------2---0h2-0h2---0-|
A|-0-----------------------3---|
E|-----------------------------|

e|--------------------------|
B|--------------------------|
G|---0h2~-0--0--------------|
D|-------------2--2-0h2---0-|
A|-0--------------------3---|
E|--------------------------|
Verse
e|-------------------------------------|  x4
B|-------------------------------------|
G|-------------------------------------|
D|----5h7-5~-5-------------------------|
A|-0-----------5h7-5h7-5h7-5h7-5h7-5h7-|
E|-------------0---0---0---0---0---0---|

e|---------------------------------------|
B|---------------------------------------|
G|----5h7-5~-5---------------------------|
D|-0-------------5h7-5h7-5h7-5h7-5h7-5h7-|
A|---------------0---0---0---0---0---0---|
E|---------------------------------------|

e|------------------------|
B|-------------------5----|
G|----5h7-5~---7-7-5---5b-|
D|-0----------------------|
A|------------------------|
E|------------------------|

e|-------------------------------------|  x2
B|-------------------------------------|
G|-------------------------------------|
D|----5h7-5~-5-------------------------|
A|-0-----------5h7-5h7-5h7-5h7-5h7-5h7-|
E|-------------0---0---0---0---0---0---|

e|-------------------|
B|-------------------|
G|-------------------|
D|-2---x-5---x-7-7-7-|
A|-2---x-5---x-7-7-7-|
E|-0---x-3---x-5-5-5-|

e|-------------------------|
B|-------------------------|
G|-------------------------|
D|-2---x-5---x-7-7-7-7-7-7-|
A|-2---x-5---x-7-7-7-7-7-7-|
E|-0---x-3---x-5-5-5-5-5-5-|

e|-------------------|
B|-------------------|
G|-------------------|
D|-9---x-12---x---9\-|
A|-9---x-12---x---9\-|
E|-7---x-10---x---7\-|

Verse can also be played like this
e|---------------------------------|
B|---------------------------------|
G|---------------------------------|
D|----5h7-5~-5---------------------|
A|-0-----------5h7-5h7-5h7-5h7-3-5-|
E|-------------0---0---0---0-------|
Tap to rate this tab
 
# A B C D E F G H I J K L M N O P Q R S T U V W X Y Z