Song name
# A B C D E F G H I J K L M N O P Q R S T U V W X Y Z

White Stripes - Lets Build A Home tab

I think Jack is using alternative tuning in this song but here's the version in standard tuning.


-------------------------------------------------------------------------------
			   Let's Build A Home - White Stripes
-------------------------------------------------------------------------------
Tabbed by: Darel
Email: - 

Tuning: Standard

              And so on. this is the main riff  . . . "Let's Build A Home.." 
e|--------------------------------------------------------------------------|
B|--------------------------------------------------------------------------|
G|--------------------------------------------------------------------------|
D|---12\0----00--3--000--3--000-3--000-3--000-3--000-3--000-3-000-3-000-3---|
A|---12\0----00--3--000--3--000-3--000-3--000-3--000-3--000-3-000-3-000-3---|
E|--------------------------------------------------------------------------|

"c'mon!"                     "Alright!"                           
e|-------------------------------------------------------------------------|
B|-------------------------------------------------------------------------|
G|-------------------------------------------------------------------------|
D|---5-55-55-55-55-55-55-55-------------00-3--000-3-000-3-000-3------------|
A|---5-55-55-55-55-55-55-55-------------00-3--000-3-000-3-000-3------------|
E|---3-33-33-33-33-33-33-33------------------------------------------------|

"C'mon!"      "Whooh!"         "Whooh!"       "Whooh!"(repeat from mine riff)
e|--------------------------------------------------------------------------|
B|--------------------------------------------------------------------------|
G|--------------------------------------------------------------------------|
D|-----7-77-7---------7-7-77-7---------7-7-77-7---------7-7-77-77-77--------|
A|-----5-55-5---------5-5-55-5---------5-5-55-5---------5-5-55-55-55--------|
E|-----5-55-5---------5-5-55-5---------5-5-55-5---------5-5-55-55-55--------|
  
Chek song for timing. Just slide for a little bit.   And mine riff here again
e|--------------------------------------------------------------------------|
B|-33/44/55/66/77/88/99/10-10/11-12\0---------------------------------------|
G|-33/44/55/66/77/88/99/10-10/11-12\0---------------------------------------|
D|-33/44/55/66/77/88/99/10-10/11-12\0---------------------------------------|
A|-33/44/55/66/77/88/99/10-10/11-12\0---------------------------------------|
E|--------------------------------------------------------------------------|


e|--------------------------------------------------------------------------|
B|-xx/xx/xx/xx/xx/xx/xx/xx/xx/-10\0-----------------------------------------|
G|-xx/xx/xx/xx/xx/xx/xx/xx/xx/-10\0-----------------------------------------|
D|--------------------------------------------------------------------------|
A|--------------------------------------------------------------------------|
E|--------------------------------------------------------------------------|

repeat as before and end with   D|-----3----|
                                A|-----3----|


************************************

| /   slide up
| \   slide down
| h   hammer-on
| p   pull-off
| ~   vibrato
| +   harmonic
| x   Mute note
| b   Bend
| pb  Pre-bend
| br  Bend release
| pbr Pre-bend release
| brb Bend release bend

************************************
Tap to rate this tab
 
# A B C D E F G H I J K L M N O P Q R S T U V W X Y Z