White Stripes - Lets Build A Home chords

Highlighted       Show chord diagrams
-------------------------------------------------------------------------------
			     Let's Build A Home - The White Stripes
-------------------------------------------------------------------------------
Tabbed by:Izzy Marmolejo
Email:cobracarg@gmail.com

Tuning: Open E

With Slide:
 E|------12/0--|
 B|------12/0--|
G#|------12/0--|
 E|-12~--12/0--|
 B|-12~--12/0--|
 E|-12~--12/0--|

Played 3x:
Rhythm:	1  +  2  +  3  +  4  +
Chords: E5 E5 G5 G5 E5 E5 G5 G5

E5 G5 E5 G5
      Whoo!

Played 2x:
E5 G5 E5 G5 E5 G5 E5 G5

VERSE 1:
    E5   G5         E5    G5
Oh, Some bricks now baby, say
E5    G5      E5   G5 E5
Let's build a home
     G5         E5    G5
Some bricks now baby, say
E5    G5      E5   G5
Let's build a home
      A5
C'mon
        E5 G5 E5 G5 E5 G5 E5
Alright
G5    B5 N.C.  B5 N.C.  B5 N.C.  B5
C'mon    Whoo!    Whoo!    Whoo!    Oh!

Played 4x: E5 G5 E5 G5

VERSE 2:
Oh, I'm gettin' lazy
Won't ya throw me a bone?
I'm gettin' lazy
Won't ya throw me a bone?
C'mon
Alright
C'mon    Whoo! Whoo! Whoo!

BREAK 1: With slide

 E|-0--3-/-9--/12-(/0)--|
 B|-0--3-/-9--/12-(/0)--|
G#|-0--3-/-9--/12-(/0)--|
 E|-0--3-/-9--/12-(/0)--|
 B|-0--3-/-9--/12-(/0)--|
 E|-0--3-/-9--/12-(/0)--|

Played 4x: E5 G5 E5 G5

Flutter picking:
 E|-0--3--/--12-(12-12p0)--|
 B|-0--3--/--12-(12-12p0)--|
G#|-0--3--/--12-(12-12p0)--|
 E|-0----------------------|
 B|-0----------------------|
 E|-0----------------------|

Played 4x: E5 G5 E5 G5
Tap to rate this tab
 
# A B C D E F G H I J K L M N O P Q R S T U V W X Y Z