White Stripes - Were Going To Be Friends tab

watched him play it live this is 99% accurate
e-----------------|-----------------|-----------------|-----------------|
B------0-------0--|------0-------0--|------0-------0--|------0-------0--|
G--0-------0------|--0-------0------|--0-------0------|--0-------0------|
D-----------------|-----------------|-----------------|-----------------|
A-----------------|-----------------|-----------------|-----------------|
E-3---3---3---3---|-3---3---3---3---|-3---3---3---3---|-3---3---3---3---|
			              fall is here...   back to school..
  
  C		    G		      D       C         G
e-----------------|-----------------|-----------------|-----------------|
B---5---5---5---5-|------0-------0--|---7---7---5---5-|------0-------0--|
G-----------------|---0-------0-----|-----------------|---0-------0-----|
D-----------------|-----------------|-----------------|-----------------|
A-3---3---3---3---|-----------------|5---5---3---3----|-----------------|
E-----------------|-3---3---3---3---|-----------------|-3---3---3---3---|
  brand new shoes.. climb the fence...I can tell...

  D       C         G
e-----------------|-----------------|
B---7---7---5---5-|------0-------0--|
G-----------------|---0-------0-----|
D-----------------|-----------------|
A-5---5---3---3---|-----------------|
E-----------------|-3---3---3---3---|
  I can tell...

  G
e-----------------|-----------------|-----------------|
B-------0-------0-|-------0-------0-|-------0-------0-|
G---0-------0-----|---0-------0-----|---0-------0-----|
D-----------------|-----------------|-----------------|
A-----------------|-----------------|-----------------|
E-3---3---3---3---|-3---3---3---3---|-3---3---3---3---|
		    Walk with me..    through the park	             
  
  C		    G		      D       C         G
e-----------------|-----------------|-----------------|-----------------|
B---5---5---5---5-|------0-------0--|---7---7---5---5-|------0-------0--|
G-----------------|---0-------0-----|-----------------|---0-------0-----|
D-----------------|-----------------|-----------------|-----------------|
A-3---3---3---3---|-----------------|5---5---3---3----|-----------------|
E-----------------|-3---3---3---3---|-----------------|-3---3---3---3---|
  we will rest...   look at all...    safely walk...

  D       C         G
e-----------------|-----------------|
B---7---7---5---5-|------0-------0--|
G-----------------|---0-------0-----|
D-----------------|-----------------|x2
A-5---5---3---3---|-----------------|
E-----------------|-3---3---3---3---|
  safely walk...

  G
e-----------------|-----------------|-----------------|
B-------0-------0-|-------0-------0-|-------0-------0-|
G---0-------0-----|---0-------0-----|---0-------0-----|
D-----------------|-----------------|-----------------|
A-----------------|-----------------|-----------------|
E-3---3---3---3---|-3---3---3---3---|-3---3---3---3---|
  		    here we are...    we walked...      	   	             
  
  C		    G		      D       C         G
e-----------------|-----------------|-----------------|-----------------|
B---5---5---5---5-|------0-------0--|---7---7---5---5-|------0-------0--|
G-----------------|---0-------0-----|-----------------|---0-------0-----|
D-----------------|-----------------|-----------------|-----------------|
A-3---3---3---3---|-----------------|5---5---3---3----|-----------------|
E-----------------|-3---3---3---3---|-----------------|-3---3---3---3---|
  there's dirt...   from chasing...   we clean up...

  D       C         G
e-----------------|-----------------|
B---7---7---5---5-|------0-------0--|
G-----------------|---0-------0-----|
D-----------------|-----------------|x2
A-5---5---3---3----|-----------------|
E-----------------|-3---3---3---3---|
  we clean up...

  G
e-----------------|-----------------|-----------------|
B-------0-------0-|-------0-------0-|-------0-------0-|
G---0-------0-----|---0-------0-----|---0-------0-----|
D-----------------|-----------------|-----------------|
A-----------------|-----------------|-----------------|
E-3---3---3---3---|-3---3---3---3---|-3---3---3---3---|
  	           numbers letters  nouns and books   	   	             
  
  C		    G		      D       C         G
e-----------------|-----------------|-----------------|-----------------|
B---5---5---5---5-|------0-------0--|---7---7---5---5-|------0-------0--|
G-----------------|---0-------0-----|-----------------|---0-------0-----|
D-----------------|-----------------|-----------------|-----------------|
A-3---3---3---3---|-----------------|5---5---3---3----|-----------------|
E-----------------|-3---3---3---3---|-----------------|-3---3---3---3---|
  at playtime...    back to class...  teacher marks...

  D       C         G
e-----------------|-----------------|
B---7---7---5---5-|------0-------0--|
G-----------------|---0-------0-----|
D-----------------|-----------------|
A-5---5---3---3---|-----------------|
E-----------------|-3---3---3---3---|
 teacher marks...

  C		    G                 C                 G	          
e-----------------|-----------------|e-----------------|-----------------|
B---5---5---5---5-|------0-------0--|B---5---5---5---5-|------0-------0--|
g-----------------|---0-------0-----|g-----------------|---0-------0-----|
D-----------------|-----------------|D-----------------|-----------------|
A-3---3---3---3---|-----------------|A-3---3---3---3---|-----------------|
E-----------------|-3---3---3---3---|E-----------------|-3---3---3---3---|
  we don't notice any time pass       we don't notice anything

  A                 A                 C                 D
e-----------------|-----------------|-----------------|-----------------|
B-------2---2-----|---2-------2---0-|---5---5---5---5-|---7---7---7---7-|
G---2-----------2-|-------2---------|-----------------|-----------------|
D-----------------|-----------------|-----------------|-----------------|
A-0---0---0---0---|-0---0---0---0---|-3---3---3---3---|-5---5---5---5---|
E-----------------|-----------------|-----------------|-----------------|
  we sit side by side in every class  teacher thinks..  but she likes...

  G
e-----------------|-----------------|
B------0--------0-|-------0-------0-|
G---0-------0-----|---0-------0-----|
D-----------------|-----------------|
A-----------------|-----------------|
E-3---3---3---3---|-3---3---3---3---|
  tonight i'll..    when silly thought  	   	             
  
  C		    G		      D       C         G
e-----------------|-----------------|----------------|-----------------|
B---5---5---5---5-|-------0-------0-|---7---7---5---5|--------0------0-|
G-----------------|---0-------0-----|----------------|---0-------0-----|
D-----------------|-----------------|----------------|-----------------|
A-3---3---3---3---|-----------------|-5---5---3---3--|-----------------|
E-----------------|-3---3---3---3---|----------------|-3---3---3---3---|
  about the bugs... when I wake...    you and i....

  D       C         G
e-----------------|-----------------|-----------------|-3----------|
B---7---7---5---5-|------0-------0--|---7---7---5---5-|-3----------|
g-----------------|---0-------0-----|-----------------|-0----------|
D-----------------|-----------------|-----------------|-0----------|
A-5---5---3---3---|-----------------|-5---5---3---3---|-2----------|
E-----------------|-3---3---3---3---|-----------------|-3----------|
  I can tell...                   yes i can tell that we are going to be friends
Tap to rate this tab
 
# A B C D E F G H I J K L M N O P Q R S T U V W X Y Z