White Stripes - Seven Nation Army tab

E|---------------------------------------------------------------|
B|---------------------------------------------------------------|
G|---------------------------------------------------------------|    
D|-14--14--16b--16--14--16b--14--14--1719--17--17--1917--16----|X2    
A|---------------------------------------------------------------|
E|---------------------------------------------------------------|

E|-12--12--14b--12--12--14b--14--12--12--15--17--15--15--17--15--14-|
B|------------------------------------------------------------------|
G|------------------------------------------------------------------|    
D|------------------------------------------------------------------| 1X   
A|------------------------------------------------------------------|
E|------------------------------------------------------------------|

E|--12--12--15--12--12--15b--14--12--12--15--12--12--15--15---------------|
B|-----------------------------------------------------------15--14--12---|
G|------------------------------------------------------------------------|    
D|------------------------------------------------------------------------|1X   
A|------------------------------------------------------------------------|
E|------------------------------------------------------------------------|

b= bend
Tap to rate this tab
 
# A B C D E F G H I J K L M N O P Q R S T U V W X Y Z