Song name
# A B C D E F G H I J K L M N O P Q R S T U V W X Y Z

White Stripes - Seven Nation Army tab

Hey it's Gibbs. Extremely easy song. This may not be 100% correct but its how i play it 
and i think it sounds pretty good. Enjoy.

/=slide up
\=slide down
b=bend
r=release bend

Verse
~~NOTE: for the bass effect that they use i turn the tone down to
0 on my guitar~~
e------------------------------|
B------------------------------|
G------------------------------|
d------------------------------|
A------------------------------|
D-7-----7-7/10-7-5-3-----2-----|

Chorus (with distortion)
e--------------------------------------------------------|
B--------------------------------------------------------|
G--------------------------------------------------------|
d-7-----7-7/10-7-5-3-----2-----7-----7-7/10-7-5-3-/5-3-2-|
A-7-----7-7/10-7-5-3-----2-----7-----7-7/10-7-5-3-/5-3-2-|
D-7-----7-7/10-7-5-3-----2-----7-----7-7/10-7-5-3-/5-3-2-|

postchorus
e------------------|
B------------------|
G------------------|
d-00000000-22222222
A-00000000-22222222
D-00000000-22222222

~~i believe this is the 3rd chorus that includes a little easy solo~~
e--------------------------------------------------|
B--------------------------------------------------|
G--------------------------------------------------| (this part is played
d-7---7-10-7-7-10---9---7---7-10-7-7-10-/12-10-9---|  twice)
A--------------------------------------------------|
D--------------------------------------------------|

e-------------------------------------------------------|
B---------------------------------------------9---------|
G-7---7-10-7-7-9b10-r9.5---7---7-10-7-7-10b11---10b11-9-| (played the remainder
d-------------------------------------------------------|  for as long as the
A-------------------------------------------------------|  chorus would be)
D-------------------------------------------------------|

~~if you want me to try and post the 100% correct version that they play let me know and 
ill give it a shot.   gibbsmania24k@gmail.com   ~~
Tap to rate this tab
# A B C D E F G H I J K L M N O P Q R S T U V W X Y Z