Song name
# A B C D E F G H I J K L M N O P Q R S T U V W X Y Z

White Stripes - Jolene Live tab

Jolene-the White stripes


E|----1-0--0h1p0-----0h1p0--------0--0h1p0-----0h1p0-----|
B|---------------3---------3---------------3---------3---|
G|--2---------------------------2------------------------|
D|-0---------------------------0-------------------------|
A|-------------------------------------------------------|
E|-------------------------------------------------------|

Jolene, jolene....
E|----1---1----3-----0---0h1p0-----0h1p0-----3-----------|
B|--------1----4---------------3---------3---4-----------|
G|--2-----2----5---2-------------------------5-----------|
D|-0------3----5--0--------------------------5-----------|
A|--------3----3-----------------------------3-----------|
E|--------1----------------------------------------------|


Your beauty is.....
E|--5---1---3---5---3-------0---0h1p0----0h1p0-------0---0h1p0----0h1p0--------|
B|--6---1---4---6---4-----------------3--------3---------------3--------3------|
G|--7---2---5---7---5-----2------------------------2---------------------------|
D|--7---3---5---7---5----0------------------------0----------------------------|
A|--5---3---3---5---3----------------------------------------------------------|
E|------1----------------------------------------------------------------------|

Your smile....
E|--5---1---3---5---3-------0---0h1p0----0h1p0-------0---0h1p0----0h1p0--------|
B|--6---1---4---6---4-----------------3--------3---------------3--------3------|
G|--7---2---5---7---5-----2------------------------2---------------------------|
D|--7---3---5---7---5----0------------------------0----------------------------|
A|--5---3---3---5---3----------------------------------------------------------|
E|------1----------------------------------------------------------------------|

 Dm       F        C      Dm
Jolene, Jolene, Jolene, Jolene
      C                                 Dm
I'm begging of you please don't take my man
Jolene, Jolene, Jolene, Jolene
Please don't take him even though you can

Solo
E|-----0--0h1p0-----0h1p0--------0--0h1p0-----3-1---1----3-1---0h1p0-0h1p0-----------|
B|--------------3---------3---------------3----------3----------------------3-3------|
G|--2--------------------------2------------------2---2------------------------------|
D|-0--------------------------0------------------------------------------------------|
A|-----------------------------------------------------------------------------------|
E|-----------------------------------------------------------------------------------|

Now i can.....
E|--5---1---3---5---3-------0---0h1p0----0h1p0-------0---0h1p0----0h1p0--------|
B|--6---1---4---6---4-----------------3--------3---------------3--------3------|
G|--7---2---5---7---5-----2------------------------2---------------------------|
D|--7---3---5---7---5----0------------------------0----------------------------|
A|--5---3---3---5---3----------------------------------------------------------|
E|------1----------------------------------------------------------------------|

Well you could.....
E|--5---1---3---5---3-------0---0h1p0----0h1p0-------0---0h1p0----0h1p0--------|
B|--6---1---4---6---4-----------------3--------3---------------3--------3------|
G|--7---2---5---7---5-----2------------------------2---------------------------|
D|--7---3---5---7---5----0------------------------0----------------------------|
A|--5---3---3---5---3----------------------------------------------------------|
E|------1----------------------------------------------------------------------|

And i had...
E|--5---1---3---5---3-------0---0h1p0----0h1p0-------0---0h1p0----0h1p0--------|
B|--6---1---4---6---4-----------------3--------3---------------3--------3------|
G|--7---2---5---7---5-----2------------------------2---------------------------|
D|--7---3---5---7---5----0------------------------0----------------------------|
A|--5---3---3---5---3----------------------------------------------------------|
E|------1----------------------------------------------------------------------|

 Dm       F        C      Dm
Jolene, Jolene, Jolene, Jolene
      C                                 Dm
I'm begging of you please don't take my man
 Dm       F        C      Dm
Jolene, Jolene, Jolene, Jolene
 C                                          Dm
Please don't take him even though you can


  Dm    F    C
E|-----5----1----3-----|
B|-----6----1----4-----|
G|-----7----2----5-----|
D|-----7----3----5-----|
A|-----5----3----3-----|
E|----------1----------|

<>
Tap to rate this tab
 
# A B C D E F G H I J K L M N O P Q R S T U V W X Y Z