Song name
# A B C D E F G H I J K L M N O P Q R S T U V W X Y Z

White Stripes - Black Math tab

find more tabs at my site www.sjd-production.co.uk



Intro
				A
|-------------|---------------|--0--0--0--0--|--0--0--0--0--|
|-------------|---------------|--2--2--2--2--|--2--2--2--2--|
|-------------|---------------|--2--2--2--2--|--2--2--2--2--|
|-------------|---------------|--2--2--2--2--|--2--2--2--2--|
|--3-----3----|--3-----3------|--0--0--0--0--|--0--0--0--0--|
|-----3-----3-|-----3-----3---|--------------|--------------| x4


Verse
A
|--0--0--0--0--|--0--0--0--0--|-------------|--------------|
|--2--2--2--2--|--2--2--2--2--|-------------|--------------|
|--2--2--2--2--|--2--2--2--2--|-------------|--------------|
|--2--2--2--2--|--2--2--2--2--|-------------|--------------|
|--0--0--0--0--|--0--0--0--0--|--3-----3----|--3-----3-----|
|--------------|--------------|-----3-----3-|-----3-----3--| x 2

Chorus

 E              G              A             C
|--0-----------|--3-----------|--0----------|--0-----------|
|--0-----------|--0-----------|--2----------|--1-----------|
|--1-----------|--0-----------|--2----------|--0-----------|
|--2-----------|--0-----------|--2----------|--2-----------|
|--2-----------|--2-----------|--0----------|--3-----------|
|--0-----------|--3-----------|-------------|--------------| x 1


A
|--0--0--0--0--|--0--0--0--0--|--0--0--0--0-|--0--0--0--0--|
|--2--2--2--2--|--2--2--2--2--|--2--2--2--2-|--2--2--2--2--|
|--2--2--2--2--|--2--2--2--2--|--2--2--2--2-|--2--2--2--2--|
|--2--2--2--2--|--2--2--2--2--|--2--2--2--2-|--2--2--2--2--|
|--0--0--0--0--|--0--0--0--0--|--0--0--0--0-|--0--0--0--0--|
|--------------|--------------|-------------|--------------| x 1

REPEAT FROM VERSE THEN PROCEED

HALF TIME
A						D
|--0--0--0--0--|--0--0--0--0--|--0--0--0--0-|------2-------|
|--2--2--2--2--|--2--2--2--2--|--2--2--2--2-|------3-------|
|--2--2--2--2--|--2--2--2--2--|--2--2--2--2-|------2-------|
|--2--2--2--2--|--2--2--2--2--|--2--2--2--2-|------0-------|
|--0--0--0--0--|--0--0--0--0--|--0--0--0--0-|--------------|
|--------------|--------------|-------------|--------------|
Tap to rate this tab
# A B C D E F G H I J K L M N O P Q R S T U V W X Y Z