Song name
# A B C D E F G H I J K L M N O P Q R S T U V W X Y Z

White Stripes - Suzy Lee tab

The White Stripes - Suzy Lee

Slide Guitar is Open E Tuning
E B E G# B E

Chords
E5: 000xxx
G5: 333xxx
A5: 555xxx

Chords With Slide
D5: 10|10|10|x|x|x
E:  12|12|12|12|12|12
D:  10|10|10|10|10|10
C#: 999999

Intro (with slide)
|--------------------12-------------10----------------------9--------------|
|-------12---------12--12---------10--10----------10----------9------------|
|-----12--12--10/12--------12-8/10--------10-----10--10-----9----9-------9/|
|10/12------12------------------------------8/10--------7/9--------7/9-9---|
|--------------------------------------------------------------------------|
|--------------------------------------------------------------------------|

Break (Play 2 Times):
E5 G5 A5 G5 A5 G5

Verse:
E
There's a story
D
I would like to tell
C#
My problem is
     G5  A5  G5   A5  E5
It's one you know too well
     G5  A5  G5   A5  E5
It's one you know too well

Verse 2
Ms. Suzy Lee
The one I'm speaking of
The question is
Is she the one I love?
Is she the one I love? (alright)

Break 2 (Play intro during break):
A5 / D5 / G5

   G5  A5  G5  A5 E5    /E (high notes)
Is she the one I  love?
   G5  A5  G5  A5 E5    /E
Is she the one I  love?

Solo (wiht slide)
|-----12--10/12-12-12~-----------/10-0-0-(0)----------------------9---------|
|-------12---------12~(0)--------------------------------(0)-------9--------|
|----------------------------10---------------------------------9-----9-7/9-|
|10/12-------------------8/10--10----------8/10-10-10-8/10--7/9-9-------7/9-|
|---------------------------------------------------------------------------|
|---------------------------------------------------------------------------|

Break 2 (With Slide)
|-0-3b-0-5b-0--|
|--------------|
|--------------|
|--------------|
|--------------|
|--------------|

Break

Verse 3:
She sent me flowers
With her tears burned inside
And you know what I'd do
I would run and hide
I would run and hide

Verse 4:
In the paper
On it was my name
With the question
"Do you feel the same?"
"Do you feel the same?"

Break 2

Break (Play 2 Times)

Verse 5:
To end this tale
The one I'm speaking of
I wish I had an answer but I just don't know
Is this really love?
Is this really love?

Break 2

Is this really love?
Is this really love?

Break

(Play With Slide)
|-------12-(/0)--------|
|-10/12----------------|
|--------------(12/0)--|
|--------------(12/0)--|
|--------------(12/0)--|
|----------------------|
Tap to rate this tab
# A B C D E F G H I J K L M N O P Q R S T U V W X Y Z