Song name
# A B C D E F G H I J K L M N O P Q R S T U V W X Y Z

White Stripes - Sister Do You Know My Name tab

There was already tabs on here but this is the correct tuning and chords, comment and 
tell me what you think :)

INTRO:


RIFF 1: Use A Slide
 Eb|------------------|
 Bb|------------------|
 G |-----7-------5-0--|
 Bb|-5/7---7/5-5---0--|
 Ab|------------------|
 Eb|------------------|

Eb (open chord)
RIFF 1
Eb

VERSE 1:
Eb                               RIFF 1  Eb
Well, we're back in school again
                               RIFF 1  Eb
And I don't really know anyone
                                RIFF 1  Eb
I really want to be your friend
                                  /G# (5th fret)
'Cause I don't really know anyone
                                 /Bb (7th fret)
And the bus is pulling up to your house
  No Chord
I wish you could be sitting here next to me

RIFF 2:
 D|-----7-------5--0---|
 A|-5/7---7/5------0---|
F#|--------------------|
 D|--------------------|
 A|--------------------|
 D|--------------------|

Eb
RIFF 1
Eb
RIFF 1

VERSE 2:
I didn't see you at summer school
But I saw you at the corner store
And I don't want to break the rules
'Cause I've broken them all before
But every time I see you I wonder why
I don't break a couple rules so that you'll notice me

RIFF 2
Eb
RIFF 1

RIFF 3:
 D|-----7------5--0--|
 A|-5/7---7/5-----0--|
F#|------------------|
 D|------------------|
 A|------------------|
 D|------------------|

Eb

VERSE 3:
Eb                           F# Eb G#  Eb
Sister do you know my name?
                                         /G#
I've heard it before but I want to know
                                          /Bb
I got a funny feeling that it's gonna work out
      No Chord                              RIFF 1  Eb
'Cause now I see you sitting here next to me
Tap to rate this tab
 
# A B C D E F G H I J K L M N O P Q R S T U V W X Y Z