Song name
# A B C D E F G H I J K L M N O P Q R S T U V W X Y Z

White Stripes - Little Bird tab

I Learned This Song Off A Tab And After I Changed The Way You Play It I Relized That 
A Slide Guitar Song
So I'm Gonna Show You How I Play It

Main Riff:

||----------------------------3-3-3----||
||----------------------------3-3-3----||
||-------------------------------------||
||--0--3--0--5--0--3--0--3s0-----------||
||--0--3--0--5--0--3--0--3s0-----------||
||-------------------------------------||


Break:

||----------------------------------------------||
||----------------------------------------------||
||----------------------------------------------||
||--0--3--0--5--0--3--0--3s5--5-5-5-5-5-5-5-----||
||--0--3--0--5--0--3--0--3s5--5-5-5-5-5-5-5-----||
||----------------------------------------------||

||----------------------3-3-3--||
||----------------------3-3-3--||
||-----------------------------||
||--7-10-7-5-0-3-7-5s0---------||
||--7-10-7-5-0-3-7-5s0---------||
||-----------------------------||


||---------------------3-3-3-------------------------------------------||
||---------------------3-3-3-------------------------------------------||
||---------------------------------------------------------------------||
||--0-3-0-5-0-3-0-3s0---------3s0-3s0-3-0-3s0-3s0-5s0-3s0-3-0-3s0-5s0--||
||--0-3-0-5-0-3-0-3s0---------3s0-3s0-3-0-3s0-3s0-5s0-3s0-3-0-3s0-5s0--||
||---------------------------------------------------------------------||

||---------------------------------------3-3-3---||
||---------------------------------------3-3-3---||
||-----------------------------------------------||
||--0s5-5-5-5-5-5--7-10-7-5-0-5-3-7-5s0----------||
||--0s5-5-5-5-5-5--7-10-7-5-0-5-3-7-5s0----------||
||-----------------------------------------------||


Main Riff:

||----------------------------3-3-3----||
||----------------------------3-3-3----||
||-------------------------------------||
||--0--3--0--5--0--3--0--3s0-----------||
||--0--3--0--5--0--3--0--3s0-----------||
||-------------------------------------||


Break:

||----------------------------------------------||
||----------------------------------------------||
||----------------------------------------------||
||--0--3--0--5--0--3--0--3s5--5-5-5-5-5-5-5-----||
||--0--3--0--5--0--3--0--3s5--5-5-5-5-5-5-5-----||
||----------------------------------------------||

||----------------------3-3-3--||
||----------------------3-3-3--||
||-----------------------------||
||--7-10-7-5-0-3-7-5s0---------||
||--7-10-7-5-0-3-7-5s0---------||
||-----------------------------||


||---------------------3-3-3-------------------------------------------||
||---------------------3-3-3-------------------------------------------||
||---------------------------------------------------------------------||
||--0-3-0-5-0-3-0-3s0---------3s0-3s0-3-0-3s0-3s0-5s0-3s0-3-0-3s0-5s0--||
||--0-3-0-5-0-3-0-3s0---------3s0-3s0-3-0-3s0-3s0-5s0-3s0-3-0-3s0-5s0--||
||---------------------------------------------------------------------||

||------------------------------------------||
||------------------------------------------||
||------------------------------------------||
||--0s5-5-5-5-5-5--7-10-7-5-0-5-3-7-5s0-----||
||--0s5-5-5-5-5-5--7-10-7-5-0-5-3-7-5s0-----||
||------------------------------------------||

Interlude:

(Play It Twice)

||---------------------------------------------------------------------||
||---------------------------------------------------------------------||
||---------------------------------------------------------------------||
||--10s12-12-12-12-12-12-12-12-15-15-15-15-15-15-15-14-14-14-14-14-14--||
||--10s12-12-12-12-12-12-12-12-15-15-15-15-15-15-15-14-14-14-14-14-14--||
||---------------------------------------------------------------------||


Last Riff:

||-------------3-3-3--||
||-------------3-3-3--||
||--------------------||
||--0-3-0-5s0---------||
||--0-3-0-5s0---------||
||--------------------||


Outro:

Ending
||-------------------------------------------5-5-5-3-2-0-----------0--||
||-------------------------------------------------------3-3-3s5-6-0--||
||-----------------------------------------------------------------0--||
||--0s5-5-5-5-5-5-5-5--7-10-7-5-0-5-3-7-5s0------------------------0--||
||--0s5-5-5-5-5-5-5-5--7-10-7-5-0-5-3-7-5s0------------------------0--||
||-----------------------------------------------------------------0--||


i think it might be a little off but it works for me and i hope it works for you
Tap to rate this tab
# A B C D E F G H I J K L M N O P Q R S T U V W X Y Z