Song name
# A B C D E F G H I J K L M N O P Q R S T U V W X Y Z

White Stripes - Hand Springs tab

e-------------|
b-------------|
g-------- x10-|
d-3-3-3-3-----|
a-3-3-3-3-----|
E-1-1-1-1-----|

e---------------|
b---------------|
g---------------|
d-8-9-10-6-6-3--| x7
a-8-9-10-6-6-3--|
E-6-7-8--4-4-1--|

e--------------------|----------|
b--------------------|----------|
g--------------------|----------|
d-8-9-10-6-6-3-6-6-3-|-3-3-3-3--| X5
a-8-9-10-6-6-3-6-6-3-|-3-3-3-3--|
E-6-7-8--4-4-1-4-4-1-|-1-1-1-1--|
repeat that a couple times and then
e--------------     e-------|
b--------------     b-------|
g--------8-9-10     g-------|
d-8-9-10-8-9-10  X8 d-6-6-3-|
a-8-9-10-6-7-8-     a-6-6-3-|
E-6-7-8--------     E-4-4-1-|
Tap to rate this tab
# A B C D E F G H I J K L M N O P Q R S T U V W X Y Z