Song name
# A B C D E F G H I J K L M N O P Q R S T U V W X Y Z

White Stripes - Ball And Biscuit tab

                             Ball And Biscuit solo
                               By White Stripes
                                 Tab by Nimar

First Solo- If you have a whammy pedal keep the the octave to one up and have the whammy 
stay down the entire solo so it will sound original,but it is not important.
E-------------12--------------------10/12----------------------10^-10-8-10-8-|
B-10^p8---------15^---10^p8---------10/12-11-10/8-10^-10-8-10-8--------------|
G------9~------------------9-------------------------------------------------|
D----------------------------------------------------------------------------|
A--------------------2-------------------------------------------------------|
E--------12/1--------0--------0-0-3------------------------------------------|

E-10-8--5-------------5-5-5----------9/15-12-12-12--12---12-------------12/1-|
B--------8---------------8--6---------------------16--15^--10^-10-8-10-8-----|
G---------5-7^-7-5-7-5-----7^-7^-7-5-----------------------------------------|
D-----2----------------------------------------------------------------------|
A-----2----------------------------------------------------------------------|
E----------------------------------------------------------------------------|

E-7/12--12--12--------------------------------------------------------------|
B-----15--15--15^-----------------------8^10-10-8-5-------------------------|
G------------------7-9-9^-9-9^-9-7-9-7-------------7-5----------------------|
D---------------4--------------------------------------7-5------------------|
A---------------2------------------------------------------7-5--------------|
E--------------------------------------------------------------8-5----------|

If you want the other solos rate my tab around 15 times excellent and comment to about 
10 times. If you want me to tab any other songs write it in the comments.
Tap to rate this tab
# A B C D E F G H I J K L M N O P Q R S T U V W X Y Z