Song name
# A B C D E F G H I J K L M N O P Q R S T U V W X Y Z

White Stripes - Theres No Home For You Here tab

Help us improve GuitareTab! Take a short survey!
There's No Home For You Here - The White Stripes

Intro/Chorus
   A   G    C                         A   A/G
|--0---3----0--0------0--0----0--0----0----------|
|--2---0----1--1------1--1----1--1----2----------|
|--2---0----0--0------0--0----0--0----2----------|
|--2---0----2--2------2--2----2--2----2---2-2-2--|
|--0---2----3--3------3--3----3--3----0---0-0-0--|
|--0---3----0--0------0--0----0--0----0---3-3-3--|
or
   A5  G5   C5                        A5  G5
|------------------------------------------------|
|------------------------------------------------|
|-----------5--5------5--5----5--5---------------|
|--7---5----5--5------5--5----5--5----7---5-5-5--|
|--7---5----3--3------3--3----3--3----7---5-5-5--|
|--5---3------------------------------5---3-3-3--|

Verse
   A      G  C     A  G A      G  C     A  G
|---------------------------------------------|
|---------------------------------------------|
|--2---------0-----2----2---------0-----2-----|
|--2------0--2-----2----2------0--2-----2-----|
|--0------2--3--2--0----0------2--3--2--0-----|
|-----0h3-3-----------3----0h3-3-----------3--|

Solo 1 (Played over chorus)
|------------------------------------------17-19-17-17-19^-17--|
|-------------14-15-14-15-14-----------------------------------|
|----------------------------14-/2-----------------------------|
|--------------------------------------------------------------|
|--18\3-3-0-------------------------3-3-0----------------------|
|--------------------------------------------------------------|

|--17-17-17-17-19-17-19^------|
|-----------------------------|
|-----------------------------|
|-------------------------19--|
|-----------------------------|
|-----------------------------|

Interlude
  D
Waking up for breakfast
Burning matches
Talking quickly
Breaking baubles
Throwing garbage
Drinking soda 
Looking happy
        C
Taking pictures
            G
So completely stupid
            A
Just go away

Solo 2 (Played over chorus)
|---------------------17^\3--------17^\3-----20--17^\3-------------|
|---------------------------1-3----------1-3-----------1-3-3^-1----|
|--7-9-7^-7----7-9--------------2-------------------------------3--|
|-----------10-----10----------------------------------------------|
|------------------------------------------------------------------|
|------------------------------------------------------------------|
Related for Theres No Home For You Here tab