Song name
# A B C D E F G H I J K L M N O P Q R S T U V W X Y Z

White Stripes - I Just Dont Know What To Do With Myself chords

Highlighted       Show chord diagrams
Hi. This is my second tab. My teacher showed it to me. It should be all correct.

Chords:
G
C
Am
F
Em
G power chord
F power chord
Bb power chord
C power chord

Intro (Clean tone)
G C G

 then play      e----------------|
                B----------------|
                G----------------|
                D--0--0----------|
                A--------3--2--0-|
                E----------------|  play the intro twice

VERSE
             G            C         G    G G
I just don't know what to do with myself

        G            C         G    G G
I don't know what to do with myself

BRIDGE

planning everything for two
                e-------0--0----0-----|
                B-------1--1----1-----|
                G------ 2--2----2-----|
                D-------2--2----2-----|
                A--0----0--0----0-----|
                E---------------------|   x2
doing everything with you
                e-------1--1----1-----|
                B-------1--1----1-----|
                G------ 2--2----2-----|  
                D-------3--3----3-----|
                A-------3--3----3-----|   x2
                E--1----1--1----1-----| 

and now that we're through
                e-------0--0--0--0-----|
                B-------0--0--0--0-----|
                G------ 0--0--0--0-----|  
                D-------2--2--2--2-----|
                A-------2--2--2--2-----|   x2
                E--0----0--0--0--0-----|

                          Am
I just don't know what to do

Verse 2 + Bridge 2 repeat chords from Verse 1 and Bridge 1

I just don't know what to do with myself
I don't know what to do with myself
movies only make me sad
parties make me feel as bad
cause I'm not with you
I just don't know what to do

Chorus: (PLAY POWER CHORDS)
                  G
Like a summer rose
                  F  
needs the sun and rain
            Bb    Bb
I need your sweet love
G            C 
to beat love away

VERSE 3 + BRIDGE 3 Repeat same as before


Chorus: Repeat. 
Middle 8
 power chords:

             G            F       G
I just don't know what to do with myself

                e--10--10--8--7--|
                B----------------|
                G----------------|
                D----------------|
                A----------------|       
                E----------------| 

x3

             G            F       G
I just don't know what to do with myself

play last G as an open chord. Let it ring.

Thanks! Enjoy
Tap to rate this tab
# A B C D E F G H I J K L M N O P Q R S T U V W X Y Z