Song name
# A B C D E F G H I J K L M N O P Q R S T U V W X Y Z

White Stripes - Girl You Have No Faith In Medicine tab

-----------------------------------------------------------------------------
             Girl you have no faith in medicine - White Stripes
-----------------------------------------------------------------------------
Tabbed by:Jamie C
E-mail:carterj1322 AT gmail.com

Tuning:Standard

So this is pretty much the same as most tabs but with different chord
voicings. If you check the live videos on youtube you can confirm this.
Power chords sound fine but this sounds closer to the record. To try and
get Jack's sound I use a Big Muff Pi at pretty much full volume, tone knob
at 2-3 o'clock and just enough on the sustain to beef it up
(maybe 8 o'clock). Then have that on an amp with some mild overdrive, mid eq
knobs high, bass and treble low.

solo section fills are from a tab by:
David S. (LedDaveZeppelin) (Dlgibson@netscape.com)

Intro
e|-------------------------------------------------------------------------|
B|--------0---0--0----------0----0---0--0----------------------------------|
G|---1----0---0--0--1-------0----0---0--0--1-------------------------------|
D|---2----0---0--0--2-------0----0---0--0--2-------(Repeat 4x)-------------|
A|---2----x---x--x--2-------x----x---x--0--2-------------------------------|
E|---0----3---3--3--0-------3----3---3--3--0-------------------------------|

e|-------------------------------------------------------------------------|
B|---2----2---2--2----------2----2---2--2----------------------------------|
G|---2----2---2--2--1-------2----2---2--2--1-------------------------------|
D|---2----2---2--2--2-------2----2---2--2--2-------------------------------|
A|---0----0---0--0--2-------0----0---0--0--2-------------------------------|
E|------------------0----------------------0-------------------------------|

e|-------------------------------------------------------------------------|
B|--------0---0--0----------0----0---0--0----------------------------------|
G|---1----0---0--0--1-------0----0---0--0--1-------------------------------|
D|---2----0---0--0--2-------0----0---0--0--2-------------------------------|
A|---2----x---x--x--2-------x----x---x--0--2-------------------------------|
E|---0----3---3--3--0-------3----3---3--3--0-------------------------------|

e|--------------------------------------------3-3-3-3-3--------------------|
B|---4---4-4----------7--7-7-7-------2--2-----2-2-2-2-2--------------------|
G|---4---4-4----------7--7-7-7-------2--2-----2-2-2-2-2--------------------|
D|---4---4-4----------7--7-7-7-------2--2-----2-2-2-2-2--------------------|
A|---2---2-2----------5--5-5-5-------0--0----------------------------------|
E|-------------------------------------------------------------------------|

e|-------------------------------------------------------------------------|
B|--------0---0--0----------0----0---0--0----------------------------------|
G|---1----0---0--0--1-------0----0---0--0--1-------------------------------|
D|---2----0---0--0--2-------0----0---0--0--2-------------------------------|
A|---2----x---x--x--2-------x----x---x--0--2-------------------------------|
E|---0----3---3--3--0-------3----3---3--3--0-------------------------------|

Chorus
e|-------------------------------------------------------------------------|
B|--------0---0--0----------0----0---0--0----------------------------------|
G|---1----0---0--0--1-------0----0---0--0--1-------------------------------|
D|---2----0---0--0--2-------0----0---0--0--2-------(Repeat 2x)-------------|
A|---2----x---x--x--2-------x----x---x--0--2-------------------------------|
E|---0----3---3--3--0-------3----3---3--3--0-------------------------------|

e|-------------------------------------------------------------------------|
B|---2----2---2--2----------2----2---2--2----------------------------------|
G|---2----2---2--2--1-------2----2---2--2--1-------------------------------|
D|---2----2---2--2--2-------2----2---2--2--2-------------------------------|
A|---0----0---0--0--2-------0----0---0--0--2-------------------------------|
E|------------------0----------------------0-------------------------------|

e|-------------------------------------------------------------------------|
B|--------0---0--0----------0----0---0--0----------------------------------|
G|---1----0---0--0--1-------0----0---0--0--1-------------------------------|
D|---2----0---0--0--2-------0----0---0--0--2-------------------------------|
A|---2----x---x--x--2-------x----x---x--0--2-------------------------------|
E|---0----3---3--3--0-------3----3---3--3--0-------------------------------|

e|-------------------------------------------------------------------------|
B|---4----4----4--4--4--4-----7-----7-----7---7---7---7--------------------|
G|---4----4----4--4--4--4-----7-----7-----7---7---7---7--------------------|
D|---4----4----4--4--4--4-----7-----7-----7---7---7---7--------------------|
A|---2----2----2--2--2--2-----5-----5-----5---5---5---5--------------------|
E|-------------------------------------------------------------------------|


Verse
e|-------------------------------------------------------------------------|
B|--------0---0--0----------0----0---0--0----------------------------------|
G|---1----0---0--0--1-------0----0---0--0--1-------------------------------|
D|---2----0---0--0--2-------0----0---0--0--2-------------------------------|
A|---2----x---x--x--2-------x----x---x--0--2-------------------------------|
E|---0----3---3--3--0-------3----3---3--3--0-------------------------------|

e|-------------------------------------------------------------------------|
B|-------------------------------------------------------------------------|
G|---1---------------------------------------------------------------------|
D|---2---------------------------------------------------------------------|
A|---2---------------------------------------------------------------------|
E|---0---------------------------------------------------------------------|

e|-------------------------------------------------------------------------|
B|--------0---0--0----------0----0---0--0----------------------------------|
G|---1----0---0--0--1-------0----0---0--0--1-------------------------------|
D|---2----0---0--0--2-------0----0---0--0--2-------------------------------|
A|---2----x---x--x--2-------x----x---x--0--2-------------------------------|
E|---0----3---3--3--0-------3----3---3--3--0-------------------------------|

e|-------------------------------------------------------------------------|
B|-------------------------------------------------------------------------|
G|---1---------------------------------------------------------------------|
D|---2---------------------------------------------------------------------|
A|---2---------------------------------------------------------------------|
E|---0---------------------------------------------------------------------|

e|-------------------------------------------------------------------------|
B|--------0---0--0----------0----0---0--0----------------------------------|
G|---1----0---0--0--1-------0----0---0--0--1-------------------------------|
D|---2----0---0--0--2-------0----0---0--0--2-------------------------------|
A|---2----x---x--x--2-------x----x---x--0--2-------------------------------|
E|---0----3---3--3--0-------3----3---3--3--0-------------------------------|

e|-------------------------------------------------------------------------|
B|---2---------------------------------------------------------------------|
G|---2---------------------------------------------------------------------|
D|---2---------------------------------------------------------------------|
A|---0---------------------------------------------------------------------|
E|-------------------------------------------------------------------------|

e|-------------------------------------------------------------------------|
B|---2----2---2--2----------2----2---2--2----------------------------------|
G|---2----2---2--2--1-------2----2---2--2--2-------------------------------|
D|---2----2---2--2--2-------2----2---2--2--2-------------------------------|
A|---0----0---0--0--2-------0----0---0--0--2-------------------------------|
E|------------------0----------------------0-------------------------------|

e|-------------------------------------------------------------------------|
B|-------------------------------------------------------------------------|
G|---1---------------------------------------------------------------------|
D|---2---------------------------------------------------------------------|
A|---2---------------------------------------------------------------------|
E|---0---------------------------------------------------------------------|

e|-------------------------------------------------------------------------|
B|--------0---0--0----------0----0---0--0----------------------------------|
G|---1----0---0--0--1-------0----0---0--0--1-------------------------------|
D|---2----0---0--0--2-------0----0---0--0--2-------------------------------|
A|---2----x---x--x--2-------x----x---x--0--2-------------------------------|
E|---0----3---3--3--0-------3----3---3--3--0-------------------------------|

e|-------------------------------------------------------------------------|
B|---4----4----4--4--4--4-----7-----7-----7---7---7---7--------------------|
G|---4----4----4--4--4--4-----7-----7-----7---7---7---7--------------------|
D|---4----4----4--4--4--4-----7-----7-----7---7---7---7--------------------|
A|---2----2----2--2--2--2-----5-----5-----5---5---5---5--------------------|
E|-------------------------------------------------------------------------|

Solo
e|-----------3b4r-----3p0--------------------------------------------------|
B|------------------------3p0----------------------------------------------|
G|---1------------------------2b3----2p0-----------------------------------|
D|---2-----------------------------------2p0-------------------------------|
A|---2---------------------------------------2p0---------------------------|
E|---0-------------------------------------------3p0-----------------------|

e|-------------------------------------------------------------------------|
B|--------0---0--0----------0----0---0--0----------------------------------|
G|---1----0---0--0--1-------0----0---0--0--1-------------------------------|
D|---2----0---0--0--2-------0----0---0--0--2-------------------------------|
A|---2----x---x--x--2-------x----x---x--0--2-------------------------------|
E|---0----3---3--3--0-------3----3---3--3--0-------------------------------|

e|------------3~~~~~~--3p0-------------------------------------------------|
B|----------X--------------3p0---------------------------------------------|
G|---1-------------------------2b3r------2p0-------------------------------|
D|---2---------------------------------------2p0---------------------------|
A|---2---------------------------------------------------------------------|
E|---0---------------------------------------------------------------------|

e|-------------------------------------------------------------------------|
B|--------0---0--0----------0----0---0--0----------------------------------|
G|---1----0---0--0--1-------0----0---0--0--1-------------------------------|
D|---2----0---0--0--2-------0----0---0--0--2-------------------------------|
A|---2----x---x--x--2-------x----x---x--0--2-------------------------------|
E|---0----3---3--3--0-------3----3---3--3--0-------------------------------|

e|----------5---------5-5-5-5------5-5------5-5----------------------------|
B|---2--------8b10r-----------8b10-----8b10-----8b10r----------------------|
G|---2---------------------------------------------------------------------|
D|---2---------------------------------------------------------------------|
A|---0---------------------------------------------------------------------|
E|-------------------------------------------------------------------------|

e|-------------------------------------------------------------------------|
B|---2----2---2--2----------2----2---2--2----------------------------------|
G|---2----2---2--2--1-------2----2---2--2--2-------------------------------|
D|---2----2---2--2--2-------2----2---2--2--2-------------------------------|
A|---0----0---0--0--2-------0----0---0--0--2-------------------------------|
E|------------------0----------------------0-------------------------------|

e|--------0---------3-0----0-----3-3---------------------------------------|
B|--------4b3------------4-----------3-0-3b5r------------------------------|
G|-------------------------------------------------------------------------|
D|---2---------------------------------------------------------------------|
A|---2---------------------------------------------------------------------|
E|---0---------------------------------------------------------------------|

e|-------------------------------------------------------------------------|
B|--------0---0--0----------0----0---0--0----------------------------------|
G|---1----0---0--0--1-------0----0---0--0--1-------------------------------|
D|---2----0---0--0--2-------0----0---0--0--2-------------------------------|
A|---2----x---x--x--2-------x----x---x--0--2-------------------------------|
E|---0----3---3--3--0-------3----3---3--3--0-------------------------------|

e|--------------------------------------------3-3-3-3-3--------------------|
B|---4---4-4----------7--7-7-7-------2--2-----2-2-2-2-2--------------------|
G|---4---4-4----------7--7-7-7-------2--2-----2-2-2-2-2--------------------|
D|---4---4-4----------7--7-7-7-------2--2-----2-2-2-2-2--------------------|
A|---2---2-2----------5--5-5-5-------0--0----------------------------------|
E|-------------------------------------------------------------------------|



************************************

| /   slide up
| \   slide down
| h   hammer-on
| p   pull-off
| ~   vibrato
| +   harmonic
| x   Mute note
| b   Bend
| pb  Pre-bend
| br  Bend release
| pbr Pre-bend release
| brb Bend release bend

************************************
Tap to rate this tab
# A B C D E F G H I J K L M N O P Q R S T U V W X Y Z