Song name
# A B C D E F G H I J K L M N O P Q R S T U V W X Y Z

White Stripes - The Hardest Button To Button tab

"The Hardest Button to Button" by the White Stripes
tabbed by Hellfire21

Intro (Bass)
Play that until the guitar comes in.

G---------------------------|
D---------------------------|
A--0-0-0-0-0-0-0-0----------|
E---------------------------|

Guitar

e------------------------------------------|
B------------------------------------------|
G---2------5------2------5------4------7---|
D----2------5------2------5------4------7--|
A--0--0---3--3---0--0---3--3---2--2---5--5-|
E------------------------------------------|

e------------------------------------------|
B------------------------------------------|
G---2------5------2------5------4------3---|
D----2------5------2------5------4------3--|
A--0--0---3--3---0--0---3--3---2--2---1--1-|
E------------------------------------------|

For the Chorus, or any where chords are being played, play this

A   D   A  D  A  D  B  A#

I decided to tab the bass for the song cuz it's rather easy.

Intro

G-------------------------------|
D-------------------------------|
A-0-0-0-0-0-0-0-0-0-0-0-0-0-0-0-|
E-------------------------------|

This is when the guitar comes in (that should be the correct beat)
G-----------------------------------------------------------------|
D-----------------------------------------------------------------|
A-0-0-0-0-3-3-3-3-0-0-0-0-3-3-3-3-0-0-0-0-3-3-3-3-2-2-2-2-7-7-7-7-|
E-----------------------------------------------------------------|

This is the last measure before the chorus
G---------------------------------|
D---------------------------------|
A-0-0-0-0-3-3-3-3-2-2-2-2-1-1-1-1-|
E---------------------------------|

Chorus
G-------------------------------------------------------------------|
D-------------------------------------------------------------------|
A-0-0-0-0-------3-3-3-3-------0-0-0-0---------3-3-3-3-------0-0-0-0-|
E-------------------------------------------------------------------|

 And that's pretty much it. Please private message me if there are any problems.
Tap to rate this tab
# A B C D E F G H I J K L M N O P Q R S T U V W X Y Z