Song name
# A B C D E F G H I J K L M N O P Q R S T U V W X Y Z

White Stripes - Lord Send Me An Angel tab

Help us improve GuitareTab! Take a short survey!
Lord, Send Me An Angel - The White Stripes

Riff/Break
|------------------------|
|------------------------|
|-----------2p0----------|
|---------------2p0------|
|--------0----------3-0--|
|--0-2-4-----------------|

Verse
   A                E                D
|--0-0-0-0-3-3-3-3--0-0-0-0-0-0-0-0--2-2-2-2-3-3-3-3--|
|--2-2-2-2-2-2-2-2--0-0-0-0-3-3-3-3--3-3-3-3-3-3-3-3--|
|--2-2-2-2-2-2-2-2--1-1-1-1-1-1-1-1--2-2-2-2-2-2-2-2--|
|--2-2-2-2-2-2-2-2--2-2-2-2-2-2-2-2--0-0-0-0-0-0-0-0--|
|--0-0-0-0-0-0-0-0--2-2-2-2-2-2-2-2-------------------|
|-----------------------------------------------------|

   A       E
|--0-0-0-0----------|
|--2-2-2-2-0-0-0-0--|
|--2-2-2-2-1-1-1-1--|
|--2-2-2-2-2-2-2-2--|
|--0-0-0-0-2-2-2-2--|
|----------0-0-0-0--|
Related for Lord Send Me An Angel tab