Song name
# A B C D E F G H I J K L M N O P Q R S T U V W X Y Z

White Stripes - Little Acorns tab

----------------------------------------------------------------------------
			 Little Acorns - The White Stripes
----------------------------------------------------------------------------
Tabbed by:talk-showonmute
Email:

Tuning:Standard


Piano Intro:

                     0:14
e|-----------------------------|
B|-----------------------------|
G|-----------------------------|
D|---///////////------8----6---|
A|---Voice Intro---------------|
E|---///////////------6----4---|

e||-----------------------------|-----------------------------|     ]
B||*----------------------------|-----------------------------|     ]
G||-----------------------------|-----------------------------|     ]
D||----5---------------8----6---|---5----------------8----6---|     ] 
A||*----------------------------|-----------------------------|     ]
E||----3---------------6----4---|---3----------------6----4---|     ]
                                                                    ]
e|------------------------------|-----------------------------|     ]
B|------------------------------|-----------------------------|     ]
G|------------------------------|-----------------------------|     ]
D|-----5--------------8----6----|---5----------------8----6---|     ] Repeat
A|------------------------------|-----------------------------|     ]   x3
E|-----3--------------6----4----|---3----------------6----4---|     ]
                                                                    ]
e|-----------------------------|------------------------------||    ]
B|-----------------------------|-----------------------------*||    ]
G|-----------------------------|------------------------------||    ]
D|---8---8---8--8---8--8---8---|---7--7--7---7--6--6--6---6---||    ]
A|-----------------------------|-----------------------------*||    ]
E|---6-------------------------|---5------------4-------------||    ]
   let ring....................................................


   0:51
e|-----------------------------|----------10------------------|
B|-----------------------------|------------------------------|
G|-----------------------------|------------------------------|
D|---5--------------8--8---6---|---5---------------8--8---6---|
A|-----------------------------|------------------------------|
E|---3--------------6--6---4---|---3---------------6--6---4---|

e|----------10-----------------|------------------------------|
B|-----------------------------|------------------------------|
G|-----------------------------|------------------------------|
D|---5--------------8--8---6---|---5--------------------------|
A|-----------------------------|------------------------------|
E|---3--------------6--6---4---|---3--------------------------|


Main Guitar Riff:

Distortion & Fuzz


                     0:57
e|-----------------------------|
B|-----------------------------|
G|-----------------------------|
D|-----------------------------|
A|--------------------8---6----|
E|--------------------6---4----|

e|------------------------------|   ]
B|------------------------------|   ]
G|------------------------------|   ]
D|---------5b6b5----------------|   ]  x4
A|----5----------------8---6----|   ]
E|----3----------------6---4----|   ]

e|------------------------------|------------------------------|
B|------------------------------|------------------------------|
G|------------------------------|------------------------------|
D|------------------------------|------------------------------|
A|---8----8---8--8---8---8---8--|---7----7---7--7---7---7---7--|    
E|---6----6---6--6---6---6---6--|---5----5---5--5---5---5---5--|

e|------------------------------|   ]
B|------------------------------|   ]
G|------------------------------|   ]
D|---------5b6b5----------------|   ]  x4
A|----5----------------8---6----|   ]
E|----3----------------6---4----|   ]

e|------------------------------|------------------------------|
B|------------------------------|------------------------------|
G|------------------------------|------------------------------|
D|------------------------------|------------------------------|
A|---8----8---8--8---8---8---8--|---7----7---7--7---7---7---7--|    
E|---6----6---6--6---6---6---6--|---5----5---5--5---5---5---5--|

Verse:

e|------------------------------|
B|------------------------------|
G|------------------------------|
D|------------------------------|
A|---5--------------------------|
E|---3--------------------------|

No Fuzz


     1:25
e|------------------------------|------------------------------|   ]
B|------------------------------|------------------------------|   ]
G|------------------------------|------------------------------|   ]
D|------------------------------|------------------------------|   ]
A|----5----5--5--5--5--5--5-----|---5--5--5--5--5--5--5--------|   ]
E|----3----3--3--3--3--3--3-----|---3--3--3--3--3--3--3--0-----|   ]
          PM....................................................   ] Repeat
                                                                   ]   x6
e|------------------------------|------------------------------|   ]
B|------------------------------|------------------------------|   ]
G|------------------------------|------------------------------|   ]
D|------------------------------|------------------------------|   ]
A|----3--3--3--3--3--3--3--3----|----3--3--3--3--3--3--3-------|   ]
E|----1--1--1--1--1--1--1--1----|----1--1--1--1--1--1--1--0----|   ]
................................................................   ]



    2:07
e|------------------------------|------------------------------|
B|------------------------------|------------------------------|
G|------------------------------|------------------------------|
D|------------------------------|------------------------------|
A|---5---5---5--5--8---8---6---5|---5---5--5--8---8---6---3----|
E|---3---3---3--3--6---6---4---3|---3---3--3--6---6---4---1----|

e|------------------------------|------------------------------|
B|------------------------------|------------------------------|
G|------------------------------|------------------------------|
D|------------------------------|------------------------------|
A|---3---3--3--8---8---6---3----|---3---3--3--8---8---6---5----|
E|---1---1--1--6---6---4---1----|---1---1--1--6---6---4---3----|

e|------------------------------|------------------------------|
B|------------------------------|------------------------------|
G|------------------------------|------------------------------|
D|------------------------------|------------------------------|
A|---5---5--5--8---8---6---5----|---5---5--5--8---8---6---3----|
E|---3---3--3--6---6---4---3----|---3---3--3--6---6---4---1----|

e|------------------------------|------------------------------|
B|------------------------------|------------------------------|
G|------------------------------|------------------------------|
D|------------------------------|------------------------------|
A|---3---3--3--8---8---6---3----|---3---3--3--8---8---6---5----|
E|---1---1--1--6---6---4---1----|---1---1--1--6---6---4---3----|


   2:23
e|------------------------------|
B|------------------------------|
G|------------------------------|
D|------------------------------|
A|---5---------8--8------8--6---|
E|---3---------6--6------6--4---|

Distortion & Fuzz

e|------------------------------|   ]
B|------------------------------|   ]
G|------------------------------|   ]
D|---------5b6b5----------------|   ]  x4
A|----5----------------8---6----|   ]
E|----3----------------6---4----|   ]

e|------------------------------|------------------------------|
B|------------------------------|------------------------------|
G|------------------------------|------------------------------|
D|------------------------------|------------------------------|
A|---8----8---8--8---8---8---8--|---7----7---7--7---7---7---7--|    
E|---6----6---6--6---6---6---6--|---5----5---5--5---5---5---5--|

e|------------------------------|   ]
B|------------------------------|   ]
G|------------------------------|   ]
D|---------5b6b5----------------|   ]  x4
A|----5----------------8---6----|   ]
E|----3----------------6---4----|   ]

e|------------------------------|------------------------------|
B|------------------------------|------------------------------|
G|------------------------------|------------------------------|
D|------------------------------|------------------------------|
A|---8----8---8--8---8---8---8--|---7----7---7--7---7---7---7--|    
E|---6----6---6--6---6---6---6--|---5----5---5--5---5---5---5--|

Verse:

e|------------------------------|
B|------------------------------|
G|------------------------------|
D|------------------------------|
A|---5--------------------------|
E|---3--------------------------|

No Fuzz


    2:53
e|------------------------------|------------------------------|   ]
B|------------------------------|------------------------------|   ]
G|------------------------------|------------------------------|   ]
D|------------------------------|------------------------------|   ]
A|----5----5--5--5--5--5--5-----|---5--5--5--5--5--5--5--------|   ]
E|----3----3--3--3--3--3--3-----|---3--3--3--3--3--3--3--0-----|   ]
          PM....................................................   ] Repeat
                                                                   ]   x4
e|------------------------------|------------------------------|   ]
B|------------------------------|------------------------------|   ]
G|------------------------------|------------------------------|   ]
D|------------------------------|------------------------------|   ]
A|----3--3--3--3--3--3--3--3----|----3--3--3--3--3--3--3-------|   ]
E|----1--1--1--1--1--1--1--1----|----1--1--1--1--1--1--1--0----|   ]
................................................................   ]



   3:27
e|------------------------------|------------------------------|
B|------------------------------|------------------------------|
G|------------------------------|------------------------------|
D|------------------------------|------------------------------|
A|---5---5---5--5--8---8---6---5|---5---5--5--8---8---6---3----|
E|---3---3---3--3--6---6---4---3|---3---3--3--6---6---4---1----|

e|------------------------------|------------------------------|
B|------------------------------|------------------------------|
G|------------------------------|------------------------------|
D|------------------------------|------------------------------|
A|---3---3--3--8---8---6---3----|---3---3--3--8---8---6---5----|
E|---1---1--1--6---6---4---1----|---1---1--1--6---6---4---3----|

e|------------------------------|------------------------------|
B|------------------------------|------------------------------|
G|------------------------------|------------------------------|
D|------------------------------|------------------------------|
A|---5---5--5--8---8---6---5----|---5---5--5--8---8---6---3----|
E|---3---3--3--6---6---4---3----|---3---3--3--6---6---4---1----|

e|------------------------------|------------------------------|
B|------------------------------|------------------------------|
G|------------------------------|------------------------------|
D|------------------------------|------------------------------|
A|---3---3--3--8---8---6---3----|---3---3--3--8---8---6---5----|
E|---1---1--1--6---6---4---1----|---1---1--1--6---6---4---3----|


   3:51
e|------------------------------|
B|------------------------------|
G|------------------------------|
D|------------------------------|
A|---5---------8--8------8--6---|
E|---3---------6--6------6--4---|

e|------------------------------|   ]
B|------------------------------|   ]
G|------------------------------|   ]
D|---------5b6b5----------------|   ]  x4
A|----5----------------8---6----|   ]
E|----3----------------6---4----|   ]

e|------------------------------|------------------------------|
B|------------------------------|------------------------------|
G|------------------------------|------------------------------|
D|------------------------------|------------------------------|
A|---8----8---8--8---8---8---8--|---7----7---7--7---7---7---7--|    
E|---6----6---6--6---6---6---6--|---5----5---5--5---5---5---5--|

e|------------------------------||
B|------------------------------||
G|------------------------------||
D|------------------------------||
A|---5--------------------------||
E|---3--------------------------||





| /  slide up
| \  slide down
| h  hammer-on
| p  pull-off
| ~  vibrato
| +  harmonic
| x  Mute note
============================================================================
Tap to rate this tab
# A B C D E F G H I J K L M N O P Q R S T U V W X Y Z