Song name
# A B C D E F G H I J K L M N O P Q R S T U V W X Y Z

White Stripes - Expecting tab

White Stripes: Expecting
Tuning: Standard

    E E E E Q   Q     E E E E Q   Q     E E E E Q   Q     E E E E Q   Q
E-|-----------------|-----------------|-----------------|-----------------|
B-|--------(6)------|--------(6)------|--------(6)------|--------(6)------|
G-|-5-7-7-X-5---5---|-5-7-7-X-5---5---|-5-7-7-X-5---5---|-5-7-7-X-5---5---|
D-|-5-7-7-X-3---5---|-5-7-7-X-3---5---|-5-7-7-X-3---5---|-5-7-7-X-3---5---|
A-|-3-5-5-X-----3---|-3-5-5-X-----3---|-3-5-5-X-----3---|-3-5-5-X-----3---|
E-|-----------------|-----------------|-----------------|-----------------|

    E E E E Q   Q     E E E E Q   Q     E E E E Q   Q     E E E E Q   Q
E-|-----------------|-----------------|-----------------|-----------------|
B-|--------(6)------|--------(6)------|--------(6)------|--------(6)------|
G-|-5-7-7-X-5---5---|-5-7-7-X-5---5---|-5-7-7-X-5---5---|-5-7-7-X-5---5---|
D-|-5-7-7-X-3---5---|-5-7-7-X-3---5---|-5-7-7-X-3---5---|-5-7-7-X-3---5---|
A-|-3-5-5-X-----3---|-3-5-5-X-----3---|-3-5-5-X-----3---|-3-5-5-X-----3---|
E-|-----------------|-----------------|-----------------|-----------------|
    You mouth said...                   That your head...

    E E E E Q   Q     E E E E Q   Q     E E E E Q   Q     E E E E Q   Q
E-|-----------------|-----------------|-----------------|-----------------|
B-|-----------------|-----------------|-----------------|-----------------|
G-|---------5-------|---------5-------|---------5-------|---------5-------|
D-|-5-7-7-X-5---5---|-5-7-7-X-5---5---|-5-7-7-X-5---5---|-5-7-7-X-5---5---|
A-|-5-7-7-X-3---5---|-5-7-7-X-3---5---|-5-7-7-X-3---5---|-5-7-7-X-3---5---|
E-|-3-5-5-X-----3---|-3-5-5-X-----3---|-3-5-5-X-----3---|-3-5-5-X-----3---|
    Forever                             Forever
                                                                  PM----|
    E E H.            W                 W                 H       E E E E
E-|-----------------|-----------------|-----------------|-----------------|
B-|-----------------|-----------------|-----------------|-----------------|
G-|-5-7-------------|-----------------|-----------------|---------5-5-5-5-|
D-|-5-7-------------|-----------------|-----------------|---------5-5-5-5-|
A-|-3-5-------------|-----------------|-----------------|---------3-3-3-3-|
E-|-----------------|-----------------|-----------------|-----------------|

    E E E E Q   Q     E E E E Q   Q     E E E E Q   Q     E E E E Q   Q
E-|-----------------|-----------------|-----------------|-----------------|
B-|-----------------|-----------------|-----------------|-----------------|
G-|---------5-------|---------5-------|---------5-------|---------5-------|
D-|-5-7-7-X-5---5---|-5-7-7-X-5---5---|-5-7-7-X-5---5---|-5-7-7-X-5---5---|
A-|-5-7-7-X-3---5---|-5-7-7-X-3---5---|-5-7-7-X-3---5---|-5-7-7-X-3---5---|
E-|-3-5-5-X-----3---|-3-5-5-X-----3---|-3-5-5-X-----3---|-3-5-5-X-----3---|

    E E E E Q   Q     E E E E Q   Q     E E E E Q   Q     E E E E Q   Q
E-|-----------------|-----------------|-----------------|-----------------|
B-|--------(6)------|--------(6)------|--------(6)------|--------(6)------|
G-|-5-7-7-X-5---5---|-5-7-7-X-5---5---|-5-7-7-X-5---5---|-5-7-7-X-5---5---|
D-|-5-7-7-X-3---5---|-5-7-7-X-3---5---|-5-7-7-X-3---5---|-5-7-7-X-3---5---|
A-|-3-5-5-X-----3---|-3-5-5-X-----3---|-3-5-5-X-----3---|-3-5-5-X-----3---|
E-|-----------------|-----------------|-----------------|-----------------|
    You have the...                     Your attempt...

    E E E E Q   Q     E E E E Q   Q     E E E E Q   Q     E E E E Q   Q
E-|-----------------|-----------------|-----------------|-----------------|
B-|--------(6)------|--------(6)------|--------(6)------|--------(6)------|
G-|-5-7-7-X-5---5---|-5-7-7-X-5---5---|-5-7-7-X-5---5---|-5-7-7-X-5---5---|
D-|-5-7-7-X-3---5---|-5-7-7-X-3---5---|-5-7-7-X-3---5---|-5-7-7-X-3---5---|
A-|-3-5-5-X-----3---|-3-5-5-X-----3---|-3-5-5-X-----3---|-3-5-5-X-----3---|
E-|-----------------|-----------------|-----------------|-----------------|
    You sent me...                      Toledo
                                                                  PM----|
    E E H.            W                 W                 H       E E E E
E-|-----------------|-----------------|-----------------|-----------------|
B-|-----------------|-----------------|-----------------|-----------------|
G-|-5-7-------------|-----------------|-----------------|---------5-5-5-5-|
D-|-5-7-------------|-----------------|-----------------|---------5-5-5-5-|
A-|-3-5-------------|-----------------|-----------------|---------3-3-3-3-|
E-|-----------------|-----------------|-----------------|-----------------|

    E E E E Q   Q     E E E E Q   Q     E E E E Q   Q     E E E E Q   Q
E-|-----------------|-----------------|-----------------|-----------------|
B-|--------(6)------|--------(6)------|--------(6)------|--------(6)------|
G-|-5-7-7-X-5---5---|-5-7-7-X-5---5---|-5-7-7-X-5---5---|-5-7-7-X-5---5---|
D-|-5-7-7-X-3---5---|-5-7-7-X-3---5---|-5-7-7-X-3---5---|-5-7-7-X-3---5---|
A-|-3-5-5-X-----3---|-3-5-5-X-----3---|-3-5-5-X-----3---|-3-5-5-X-----3---|
E-|-----------------|-----------------|-----------------|-----------------|

    E E E E Q   Q     E E E E Q   Q     E E E E Q   Q     E E E E Q   Q
E-|-----------------|-----------------|-----------------|-----------------|
B-|--------(6)------|--------(6)------|--------(6)------|--------(6)------|
G-|-5-7-7-X-5---5---|-5-7-7-X-5---5---|-5-7-7-X-5---5---|-5-7-7-X-5---5---|
D-|-5-7-7-X-3---5---|-5-7-7-X-3---5---|-5-7-7-X-3---5---|-5-7-7-X-3---5---|
A-|-3-5-5-X-----3---|-3-5-5-X-----3---|-3-5-5-X-----3---|-3-5-5-X-----3---|
E-|-----------------|-----------------|-----------------|-----------------|
    I came back...                      But after the...

    E E E E Q   Q     E E E E Q   Q     E E E E Q   Q     E E E E Q   Q
E-|-----------------|-----------------|-----------------|-----------------|
B-|-----------------|-----------------|-----------------|-----------------|
G-|---------5-------|---------5-------|---------5-------|---------5-------|
D-|-5-7-7-X-5---5---|-5-7-7-X-5---5---|-5-7-7-X-5---5---|-5-7-7-X-5---5---|
A-|-5-7-7-X-3---5---|-5-7-7-X-3---5---|-5-7-7-X-3---5---|-5-7-7-X-3---5---|
E-|-3-5-5-X-----3---|-3-5-5-X-----3---|-3-5-5-X-----3---|-3-5-5-X-----3---|
    I'm expecting...                    I'm expected...

    E E H.            H         E Q
E-|-----------------|-----------6-----|
B-|-----------------|-----------------|
G-|-5-7-------------|-----------------|
D-|-5-7-------------|-------------1-~-|
A-|-3-5-------------|-------------2-~-|
E-|-----------------|-------------0-~-|



+-----------------------------+
|           LEGEND            |
+----+------------------------+
| PM | Paml mute              |
| ~  | Let ring               |
+----+------------------------+
| E  | Eigth note (1/2 beat)  |
| Q  | Quarter note (1 beat)  |
| H  | Half note (2 beats)    |
| H. | Dotted  Half (3 beats) |
| W  | Whole note (4 beats)   |
+----+------------------------+





+-------------------------------------------------------------------------+
|                                                                         |
|                                 LYRICS                                  |
|                                                                         |
+-------------------------------------------------------------------------+

Your mouth said this never,
But your fingers have shown me.
Your head is so clever,
You claim that you own me.
Forever.
Forever.
Forever.
Forever.

You have the right to conduct me,
In whatever fashion.
Your attempt construct me,
In the interest of passion.
You sent me,
To Toledo.
Toledo.
Toledo.

I came back with handfulls,
I did what you asked me.
But after the thank yous,
That you quickly got passed me.
I'm expected.
You're expecting.
I'm expected.
Expected.
Tap to rate this tab
 
# A B C D E F G H I J K L M N O P Q R S T U V W X Y Z