Song name
# A B C D E F G H I J K L M N O P Q R S T U V W X Y Z

White Stripes - Lafayette Blues tab

Help us improve GuitareTab! Take a short survey!
Lafayette Blues - The White Stripes

Chord used in the verses
E5: 022xxx A5: x022xx B5: x244xx D5: x577xx G5: 355xxx

Intro
|----------------------------------------|
|----------------------------------------|
|--------1-2-4-2-1--------------0-2-0----|
|--2-2-2-----------2--0-0-0-0-4-------4--|
|----------------------------------------|
|----------------------------------------|

Break (Played over intro)
|--0-0-0-0-4-5-7-5-4-0----------------------|
|-----------------------3-3-3-3-3-5-7-5^-3--|
|-------------------------------------------|
|-------------------------------------------|
|-------------------------------------------|
|-------------------------------------------|

Overdubes
|-------------|----------|-----------|
|-------------|----------|-----------|
|--2b4-2-0-2--|--0-/7\0--|-----------|
|-------------|----------|--5-/12\5--|
|-------------|----------|-----------|
|-------------|----------|-----------|

Break 2
|---------------------------|
|---------------------------|
|--9--9--9--9--9--9--9-7-7--|
|--9--9--9--9--9--9--9-7-7--|
|--7--7--7--7--7--7--7-5-5--|
|---------------------------|

|--------------------------------------------------|
|--------------------------------------------------|
|--------------------------------------------------|
|--7--7--7--7--7--7--7--5--7--7--7--7--7--5--7--7--|
|--7--7--7--7--7--7--7--5--7--7--7--7--7--5--7--7--|
|--5--5--5--5--5--5--5--3--5--5--5--5--5--3--5--5--|
                  Yeah!

|---------------------------------------------------|
|---------------------------------------------------|
|--9--9--9--9--9--10--9--7--9--9--9--9--9--9--9--9--|
|--9--9--9--9--9--10--9--7--9--9--9--9--9--9--9--9--|
|--7--7--7--7--7--8---7--5--7--7--7--7--7--7--7--7--|
|---------------------------------------------------|
Related for Lafayette Blues tab