Song name
# A B C D E F G H I J K L M N O P Q R S T U V W X Y Z

White Stripes - Cannon tab

E-mail: Boy_Eats_Fire@hotmail.com 

X = Palm Mute Note

0:00

e|-----------------------|
B|-----------------------| 
G|-----------------------|
D|-----------------------| X7 
A|----7------------------|
E|--0---7-7-6-6-6-6-5-3--|

0:25 

e|-----------------------------|
B|-----------------------------|
G|-----------------------------|
D|-----------------------------|
A|-2-2-2-2-2-2-2-2-2-2-2-2-2-2-|
E|-0-3-0-3-0-3-0-3-0-3-0-3-0-3-|

0:32 
e|--------------------|----------------------|
B|--------------------|----------------------|
G|--------------------|----------------------|
D|-9------------------|----9-----------------| X8 
A|-7--9-9-8-8-8-8-7-5-|-0--7--9-9-8-8-8-8-7-5|
E|----7-7-6-6-6-6-5-3-|-0-----7-7-6-6-6-6-5-3|

1:05

e|--------------------------------|
B|--------------------------------|
G|--------------------------------|
D|--------------------------------|
A|-2-2-2-2-2-2-2-2-2-2-2-2-2-2-2-2|
E|-0-3-0-3-0-3-0-3-3-0-3-0-3-0-3-0| 

1:12 
   X X X X X X X X X X X       X X X       X X X
e|----------------------------------------------------|
B|-1-1-1-1-1-1-1-1-1-1-1-------1-1-1-------1-1-1------|
G|-2-2-2-2-2-2-2-2-2-2-2-------2-2-2-------2-2-2------|
D|-2-2-2-2-2-2-2-2-2-2-2-------2-2-2-------2-2-2------| Repeat Like That
A-------------------------9-7---------9-7---------9-7-|
E|------------------------7-5---------7-5---------7-5-|
   X X X X X X X X X X X       X X X       X X X

1:49 

e|----------------------|
B|----------------------|
G|----------------------|
D|---9------------------| X6
A|-0-7--9-9-8-8-8-8-7-5-|
E|-0----7-7-6-6-6-6-5-3-|

2:12 
   
   X X X X X X X
e|---------------|
B|-1-1-1-1-1-1-1-|
G|-2-2-2-2-2-2-2-|
D|-2-2-2-2-2-2-2-|
A|---------------|
E|---------------|
   X X X X X X X 

2:15

e|-12-12-11-11-10-10-9-9-/-|
B|-------------------------|
G|-------------------------|
D|-------------------------|
A|-------------------------|
E|-------------------------| 

e|-12-12-12-11-11-11-10-10-10-9-9-9-/-|
B|------------------------------------|
G|------------------------------------|
D|------------------------------------|
A|------------------------------------|
E|------------------------------------|

e|-12-12-12-12-11-11-11-11-10-10-10-10-9-9-9-9-|
B|---------------------------------------------|
G|---------------------------------------------|
D|---------------------------------------------|
A|---------------------------------------------|
E|---------------------------------------------|

2:24

e|-------------------|
B|-------------------|
G|-------------------|
D|-------------------|
A|-2-2-2-2-2-2-2-2-2-|
E|-0-3-0-3-0-3-3-0-3-|
Tap to rate this tab
 
# A B C D E F G H I J K L M N O P Q R S T U V W X Y Z