Song name
# A B C D E F G H I J K L M N O P Q R S T U V W X Y Z

White Stripes - Broken Bricks tab

Broken Bricks by the White Stripes
White Stripes (2002)
(standard tuning)

 h   hammer on      /   slide up   
 p   pull off       \   slide down       
 b   bend           *   natural harmonic 
 pb  pre bend       ra  rake             
 r   release bend   x   dead note        


|-------------------------------------------------------------|
|-------------------------------------------------------------|
|-------------------------------------------------------------|
|----------x-5--5--x-7--7--x-5--5----------x-5--5--x--7--7-5--|
|--x-7--7--x-3--3--x-5--5--x-3--3----7--7--x-3--3--x--5--5-3--|
|--x-5--5----------------------------5--5---------------------|
2 times


|----------------------------------|
|----------------------------------|
|----------------------------------|
|----------x-5--5--x-7--7--x-5--5--|
|--x-7--7--x-3--3--x-5--5--x-3--3--|
|--x-5--5--------------------------|
8 times


|--------------------------------------------------------------|
|--------------------------------------------------------------|
|--------------------------------------------------------------|
|------------------------------------------------5--4--3--2-x--|
|--7--7--x-5--5--x-7--7--x-5--5--x-7--7--x-5--5--3--2--1--0-x--|
|--5--5--x-3--3--x-5--5--x-3--3--x-5--5--x-3--3----------------|
2 times


|-------------------------------------------------------------|
|-------------------------------------------------------------|
|-------------------------------------------------------------|
|----------x-5--5--x-7--7--x-5--5----------x-5--5--x--7--7-5--|
|--x-7--7--x-3--3--x-5--5--x-3--3----7--7--x-3--3--x--5--5-3--|
|--x-5--5----------------------------5--5---------------------|
8 times


|----------------------------------|
|----------------------------------|
|----------------------------------|
|----------x-5--5--x-7--7--x-5--5--|
|--x-7--7--x-3--3--x-5--5--x-3--3--|
|--x-5--5--------------------------|
8 times


|---------------------------------------------------------------|
|---------------------------------------------------------------|
|---------------------------------------------------------------|
|---------------------------------------------------------------|
|--7--7--x-5--5--x-7--7--x-5--5--x-7--7--x-5--5---x-3--4--5--6--|
|--5--5--x-3--3--x-5--5--x-3--3--x-5--5--x-3--3---x-1--2--3--4--|



|------------------------------|-----|
|------------------------------|-----|
|------------------------------|-----|
|--------x-5--5--x--7-7--9--9--|-----|
|--7--7--x-3--3--x--5-5--7--7--|--7--|
|--5--5------------------------|--5--|
8 times                         End.
Tap to rate this tab
 
# A B C D E F G H I J K L M N O P Q R S T U V W X Y Z