Song name
# A B C D E F G H I J K L M N O P Q R S T U V W X Y Z

White Stripes - Jimmy The Exploder tab

Tuning: Standard

-----------------------1-3----------------|
------------------------------------------|
----------------------------3--3b--------.|
-----------------------------------------.|
------------------------------------------|
--1--3------------------------------------|

---------------------------|
----------3~~--------------|
-----------------5-4------.|
------5--------------5----.|
----5----------------------|
--3------------------------|

--------------------------------------------------|
--------------------------------------------------|
-------------------------------------------------.|
--5--5--3--3--5--5--3--3--5--5--3--3--5--5--3--3-.|
--5--5--3--3--5--5--3--3--5--5--3--3--5--5--3--3--|
--3--3--1--1--3--3--1--1--3--3--1--1--3--3--1--1--|

---------------------------|
---------------------------|
---7----------------3------|
---7----------------3------|
---5----------------1------|

--------------------------------------------------|
--------------------------------------------------|
-------------------------------------------------.|
--5--5--3--3--5--5--3--3--5--5--3--3--5--5--3--3-.|
--5--5--3--3--5--5--3--3--5--5--3--3--5--5--3--3--|
--3--3--1--1--3--3--1--1--3--3--1--1--3--3--1--1--|

  hoo hoo hoo hoo hoo hoo hoo hoo hoo hoo hoo hoo hoo hoo hoo!
-------------------------------------------------------------|
-------------------------------------------------------------|
-------------------------------------------------------------|
--5---5---5---5---5---5---5---5---5---5---5---5---5---5---5--|
--5---5---5---5---5---5---5---5---5---5---5---5---5---5---5--|
--3---3---3---3---3---3---3---3---3---3---3---3---3---3---3--|

--------------------------------------------------|
--------------------------------------------------|
--------------------------------------------------|
--5---5---3---2----5---5--3---2---5---5---3---2---|
--5---5---3---2----5---5--3---2---5---5---3---2---|
--3---3---1---0----3---3--1---0---3---3---1---0---|

Notation used:
b-bend
~-vibrato
Tap to rate this tab
# A B C D E F G H I J K L M N O P Q R S T U V W X Y Z