Song name
# A B C D E F G H I J K L M N O P Q R S T U V W X Y Z

White Stripes - Slicker Drips tab

Slicker Drips - The White Stripes

Intro/Verse
|----------------------|
|----------------------|
|----------------------|
|--8--7--5--x--x----x--|
|--8--7--5--x--x----x--|
|--6--5--3--x--x----x--|

Chorus
|----------------------|
|----------------------|
|----------------------|
|--5--5--5--x--x----x--|
|--5--5--5--x--x----x--|
|--3--3--3--x--x----x--|

Solo
|---------3-2-3-2-3-2/3----------------------------------|
|--------------------------------------------------------|
|-----------------------------3-0-3-5/6\5---3/4---3/4----|
|--5-5-5----------------5-5-5-------------5-----5-----5--|
|--5-5-5----------------5-5-5-------------5-----5-----5--|
|--3-3-3----------------3-3-3-------------3-----3-----3--|

|--3-3-2-3-2/3--------------------------|
|---------------------------------------|
|--------------------5p3p0-5p3p0--------|
|--------------5-5-5-------------5-5-5--|
|--------------5-5-5-------------5-5-5--|
|--------------3-3-3-------------3-3-3--|
Tap to rate this tab
# A B C D E F G H I J K L M N O P Q R S T U V W X Y Z