Song name
# A B C D E F G H I J K L M N O P Q R S T U V W X Y Z

White Stripes - Lets Build A Home tab

----------------------------------------------------------------------------
			     Lets Build a Home - The White Stripes
----------------------------------------------------------------------------
Tabbed by: 100%guitarmad
Email: lifebeyondreason@hotmail.co.uk
Website: http://www.myspace.com/lifebeyondreasonband

Tuning: Drop D, Baby!

Intro
e|------|
B|------|
G|------|
D|-12\0-|
A|-12\0-|
D|-12\0-|

Main Riff
e|------------------------------|
B|------------------------------|
G|------------------------------|
D|-0--3----0--3----0--3----0--3-|
A|-0--3----0--3----0--3----0--3-|
D|-0--3----0--3----0--3----0--3-|

2nd Riff
e|---------------------------|
B|---------------------------|
G|---------------------------|
D|--5-5-5-5-5-5-5-5-5-5-5-5--|
A|--5-5-5-5-5-5-5-5-5-5-5-5--|
D|--5-5-5-5-5-5-5-5-5-5-5-5--|

3rd Riff
e|----------------|
B|----------------|
G|----------------|
D|-7-7-7-7-7-7-x--|
A|-7-7-7-7-7-7-x--|
D|-7-7-7-7-7-7-x--| 

End
e|-----|
B|-----|
G|-----|
D|--0--|
A|--0--|
D|--0--| 


Intro
Main Riff x4
2nd Riff x1
Main Riff x2
3rd Riff x4

Main Riff x4
2nd Riff x1
Main Riff x2
3rd Riff x4

Slide Solo

Main Riff x2

Slide Solo

Main Riff x4
2nd Riff x1
Main Riff x2
3rd Riff x4

End

| /  slide up
| \  slide down
| x  Mute note
============================================================================
Tap to rate this tab
# A B C D E F G H I J K L M N O P Q R S T U V W X Y Z