Song name
# A B C D E F G H I J K L M N O P Q R S T U V W X Y Z

White Stripes - As Ugly As I Seem tab

-----------------------------------
| As Ugly As I Seem 		    |
| Words and Music by Jack White     |
|
 -----------------------------------

Tuned slightly sharp.

 -------------------------------------------------------------------------------------------------
| Tab Definitions:										  |
|    A: x02220											  |
|    G: 320003											  |
|    C: x320xx											  |
|Dsus4: x540xx											  |
|    h: Hammer onto note								          |
|    p: Pull off of note									  |
|    /: Slide up to note									  |
|    \: Slide down to note								 	  |
|   (): Ghost note										  |
| N.C.: No Chord played										  |
 -------------------------------------------------------------------------------------------------

The melody is played with the fingers, while the thumb keeps bass on the two low strings.
The thumb occasionally speeds up from quarter notes to eight notes, but it does not seem intentional.

INTRO:

Two, three,
   A
e|-----------------------------------------------------------------------------------------------------|
B|-0------3---3-2-0-2---------------------3--/3-2-0-2-------0---2--------/3--/3-2-0--0--2--------------|
G|-2--------------------2---0---2---2-------------------2-----------2-----------------------2---0--0h2-|
D|-2---------------------------------------------------------------------------------------------------|
A|----0---0---0---0---0---0---0---0---0---0---0---0---0---0---0---0---0---0---0---0---0---0---0---0----|
E|-----------------------------------------------------------------------------------------------------|

e|--------------------------------|
B|---2-----------2-------2--------|
G|-------2-----------2-------2----|
D|--------------------------------|
A|-0---0---0---0---0---0---0---0--|
E|--------------------------------|


VERSE 1:
   A
e|------------------------------------------------------------------------------------------------|
B|-2---------------2--------------/3-------2-------0----------------2--------------(2)------------|
G|---------2---------------2--------------------------------2-------------(0h2)-------------------|
D|------------------------------------------------------------------------------------------------|
A|-----0-------0-------0-------0-------0-------0--------0-------0-------0-------0-------0------0--|
E|------------------------------------------------------------------------------------------------|
   I,                      I'm as ug   -   ly      as       I       seem

                                       G
e|-----------------------------------------------------------------------------|
B|-(3)----(2)------0----------------0----------------0---------------0---------|
G|-------------------------2-------------------0------------0---------------0--|
D|-----------------------------------------0-----------------------------------|
A|-----0-------0-------0-------0-----------------------------------------------|
E|-------------------------------------3-------3--------3-------3-------3------|
    Worse  than    all     your    dreams

                          A
e|-----------------------------------------------------------------------------------|
B|-------0----0-----------------------2----------------------------------------------|
G|--------------------------------------------2------2h3------2-------0------(2)-----|
D|-----------------------------------------------------------------------------------|
A|------------------------0-------0-------0-------0-------0-------0-------0-------0--|
E|-3-------3-------3-----------------------------------------------------------------|
   Could ev - er     make    me                      out     to be

A
And it makes me want to scream
               G
When it's Halloween
                 A
And the kids are laughing

The rogue is a bank he's never broke
                       G
But worth as much as a joke
               A
That no one is laughing at


BREAK 1:
      C       Dsus4       C       Dsus4      A                                C      Dsus4      C       Dsus4
e|-------------------------------------------------------------------------------------------------------------|
B|----------------------------------------------(0)--------2/3-2---0--------0----------------------------------|
G|--------0-------0----0------0-------0-------------0--2---------------2----------0------0----0------0-------0-|
D|-0----2-------4----4------2-------4----------0-2------------------------------2------4----4------2-------4---|
A|----3------/5-----------3------/5------3-2-0---0---0---0---0---0---0---0----3------5-----------3------/5-----|
E|-------------------------------------------------------------------------------------------------------------|
       A
e|--------------------------------------------------------------------|
B|-------------------2---2/3-2---0---2-------2-------2/3-2---0--------|
G|------------0--2-----------------------2-------2---------------2----|
D|-------0-2----------------------------------------------------------|
A|-2-3-0---0---0---0---0---0---0---0---0---0---0---0---0---0---0---0--|
E|--------------------------------------------------------------------|


VERSE 2:
A
Can you believe some things are not
                         G
Appealing? And there's a spot
                     A
On the ceiling of my childhood bedroom

And contains dreams that you can't imagine
                           G
But none of them match the vision
                A
That you have decided for me


VERSE 3:
A
You want to take away from me
                                  G
The things that are mine and it's not your right
                        A
I'll bet you wouldn't expect a fight

Can it be that I don't want what you want
                           G
And the only thing I could care for is
                          A
A place in a home that is safe and warm
       				            G     A
Safe and warm, safe and warm, safe and warm


BREAK 2:

      C      Dsus4       C                    A
e|----------------------------------------------------------------------------------------------------------|
B|-0------------------------------------------------0---2---2/3-2---0---2-------0h2p0-2-----2/3-2---0---2---|
G|--------0------0----0------0---------0------------0---2---2---2---2---2---2---2-----2---------------------|
D|------2------4-----------2-----(0h2)----------0-----------------------------------------------------------|
A|----3------5------3----3-----3----------3-2-0---0---0---0---0---0---0---0---0---0---0---0---0---0---0---0-|
E|----------------------------------------------------------------------------------------------------------|

       N.C.                      A                          /g   A
e|--------------------------------------------------------------------------------------------|
B|-0h2-------------------------0h2---2/3-2/3\2-0---2---3---2-------2/3\2-3\2---0---2---2------|
G|-------------------------------2---2---2-----2---2---2---2-------2-----2-----2---2---2---2--|
D|--------------------------------------------------------------------------------------------|
A|-------------------------------0---0---0---0---0---0---0-------0---0---0---0---0---0---0----|
E|-----------------------------------------------------------3b-------------------------------|


VERSE 4:
A
Judge yourself if you feel the need
                     G
Just let me alone to be
                 A
In search of the truth myself

There is a drop of blood on the ground
                             G
And it seems to me that it's not my kind
                            A
And I can't be sure if it's yours or mine


BREAK 3:

      C       Dsus4       C       Dsus4      A                                C       Dsus4      C       Dsus4
e|--------------------------------------------------------------------------------------------------------------|
B|----------------------------------------------(0)-------2/3--2---0--------------------------------------------|
G|--------0-------0----0------0-------0-------------0--2---------------2----0-----0-------0----0------0-------0-|
D|-0----2-------4----4------2-------4----------0-2------------------------------2-------4----4------2-------4---|
A|----3------/5-----------3------/5------3-2-0---0---0---0---0---0---0---0----3------/5-----------3------/5-----|
E|--------------------------------------------------------------------------------------------------------------|

        C       Dsus4       A
e|------------------------------------------------------------------------------------0------|
B|---0------------------------------------2h3-2---0---2---0h2-------3---3-2p0-2---3-------2--|
G|-4--------0-------0-------------0---2-----------------------2------------------------------|
D|--------2-------4-----------0-2------------------------------------------------------------|
A|------3------/5-------2-3-0---0---0---0---0---0---0---0---0---0---0---0---0---0---0---0----|
E|-------------------------------------------------------------------------------------------|

A
I, I'm as ugly as I seem
                    G                 A
Worse than all your dreams could ever make me
Could ever make me
Could ever make me
Could ever make me

A
Tap to rate this tab
# A B C D E F G H I J K L M N O P Q R S T U V W X Y Z