Song name
# A B C D E F G H I J K L M N O P Q R S T U V W X Y Z

White Stripes - Instinct Blues tab

The White Stripes-Instinct Blues
thewhite549

e|----------------------|  
B|-------15-16b15-13----|
G|-17---------------14--|
D|----------------------|
A|----------------------|
E|----------------------|

e|----------|
B|----------|
G|--14/1/2--|
D|----------|
A|----------|
E|----------|

e|-----------------------------------|
B|-----------------------------------|
G|-------0h2-0-----------------------|
D|-/2-----------2--0h2-0--0h2---0----| 
A|----0-----------------------3---0--|
E|-----------------------------------|

e|--------------------------------|
B|--------------------------------|
G|----0h2-0-----------------------|
D|-----------2--0h2-0--0h2---0----|
A|-0-----------------------3---0--|
E|--------------------------------|
 
Verse

e|---------------------------------------|  x4
B|---2-0---------------------------------|
G|-2-2-0---------------------------------| 
D|-2-------------------------------------|
A|-0------------2---2---2---2---2---2----|
E|--------------0---0---0---0---0---0----|

e|---------------------------------------|  
B|---------------------------------------|
G|---2-0---------------------------------|sometimes he play the main note
D|-0-------------------------------------|
A|--------------2---2---2---2---2---2----|
E|--------------0---0---0---0---0---0----|

e|--------------------------------------|
B|------------------------2-------------|
G|-----2h4--2-----4-4--2----2--0--------|
D|-0------------------------------------|
A|--------------------------------------|
E|--------------------------------------|

e|---------------------------------------|  
B|---2-0---------------------------------|
G|-2-2-0---------------------------------|
D|-2-------------------------------------|
A|-0------------2---2---2---2---2---2----|
E|--------------0---0---0---0---0---0----|

e|---------------------------------------|  
B|---2-0---------------------------------|
G|-2-2-0---------------------------------|
D|-2-------------------------------------|
A|-0------------2---2---2---2---2---2----|
E|--------------0---0---0---0---0---0----|

          E5          G5         A5   A5 a5 A5
'Cause ev-ery worm that's under your shoe
N.C.      E5       G5         A5 A5  A5  A5 A5 A5
And every bird and bee in the jungle too
         E5           G5    A5   A5 A5 A5
And everything in the ocean blue
N.C.      B5               D5            B5 (feedback)
They just happen to know exactly what to do
N.C.              A5
So why don't you?

E5:022xxx
G5:355xxx
A5:577xxx
B5:799xxx
D5:101212xxx

A5 A5 A5 A5 A5 A5 A5 A5 A5 A5 A5 A5


E5^ E5^ E5^ E5^ E5^ E5^ E5^ E5^ E5^ E5^ E5^ E5^ E5^ E5^ E5^
Tap to rate this tab
# A B C D E F G H I J K L M N O P Q R S T U V W X Y Z