Song name
# A B C D E F G H I J K L M N O P Q R S T U V W X Y Z

White Stripes - Take Take Take tab

----------------------------------------------------------------------------
		Take Take Take - White Stripes
----------------------------------------------------------------------------
Tabbed by: Dave. S
Email: Dlgibson@netscape.com

Tuning: Standard



Verse
  (Guitar)
e|--3---3-----------1---1--1---1-1--1---3---3---3-3---3---3---3---3-3---3--|
B|--3---3---3---3---1---1--1---1-1--1---3---3---3-3---3---3---3---3-3---3--|
G|--0---0---3---3---2---2--2---2-2--2---0---0---0-0---0---0---0---0-0---0--|
D|--0---0---3---3---3---3--3---3-3--3---0---0---0-0---0---0---0---0-0---0--|
A|----------1---1---3---3--3---3-3--3--------------------------------------|
E|--3---3-----------1---1--1---1-1--1---3---3---3-3---3---3---3---3-3---3--|
 |(Piano)                  
e|-------------------------------------------------------------------------|
B|-------------------------------------------------------------------------|
G|-------------------------------------------------------------------------|
D|-------------------------------------------------------------------------|
A|----------1--------------------------------------------------------------|
E|--3---------------1-------------------3-----------------3----------------|


e|--3---3-----------1---1--1---1-1--1---3---3---3-3---3---3---3---3-3---3--|
B|--3---3---3---3---1---1--1---1-1--1---3---3---3-3---3---3---3---3-3---3--|
G|--0---0---3---3---2---2--2---2-2--2---0---0---0-0---0---0---0---0-0---0--|
D|--0---0---3---3---3---3--3---3-3--3---0---0---0-0---0---0---0---0-0---0--|
A|----------1---1---3---3--3---3-3--3--------------------------------------|
E|--3---3-----------1---1--1---1-1--1---3---3---3-3---3---3---3---3-3---3--|
 |
e|-------------------------------------------------------------------------|
B|-------------------------------------------------------------------------|
G|-------------------------------------------------------------------------|
D|-------------------------------------------------------------------------|
A|----------1--------------------------------------------------------------|
E|--3---------------1-------------------3-----------------3----------------|


e|--------------------------------------3---3---3-3---3---3---3---3-3---3--|
B|--------------------------------------3---3---3-3---3---3---3---3-3---3--|
G|-3--5--3---3--3----7--10--7---7--7----0---0---0-0---0---0---0---0-0---0--|
D|-3--5--3---3--3----7--10--7---7--7----0---0---0-0---0---0---0---0-0---0--|
A|-1--3--1---1--1----5--8---5---5--5---------------------------------------|
E|--------------------------------------3---3---3-3---3---3---3---3-3---3--|
 |
e|-------------------------------------------------------------------------|
B|-------------------------------------------------------------------------|
G|-3--5--3-----------7--10--7----------------------------------------------|
D|-3--5--3-----------7--10--7-------3-4-5----------------------------------|
A|-1--3--1-----------5--8---5----------------------------------------------|
E|-------------------------------------------------------------------------|


e|---3---------------1------------------3---3---3-3---3---3---3---3-3---3--|
B|---3-------3-------1------------------3---3---3-3---3---3---3---3-3---3--|
G|---0-------3-------2------------------0---0---0-0---0---0---0---0-0---0--|
D|---0-------3-------3------------------0---0---0-0---0---0---0---0-0---0--|
A|-----------1-------3-----------------------------------------------------|
E|---3---------------1------------------3---3---3-3---3---3---3---3-3---3--|
 |
e|-------------------------------------------------------------------------|
B|-------------------------------------------------------------------------|
G|-------------------------------------------------------------------------|
D|-------------------------------------------------------------------------|
A|-----------1-------------------------------------------------------------|
E|---3---------------1------------------3-----------------3----------------|


e|---3---------------1------------------3---3---3-3---3---3---3---3-3---3--|
B|---3-------3-------1------------------3---3---3-3---3---3---3---3-3---3--|
G|---0-------3-------2------------------0---0---0-0---0---0---0---0-0---0--|
D|---0-------3-------3------------------0---0---0-0---0---0---0---0-0---0--|
A|-----------1-------3-----------------------------------------------------|
E|---3---------------1------------------3---3---3-3---3---3---3---3-3---3--|
 |
e|-------------------------------------------------------------------------|
B|-------------------------------------------------------------------------|
G|-------------------------------------------------------------------------|
D|-------------------------------------------------------------------------|
A|-----------1-------------------------------------------------------------|
E|---3---------------1------------------3-----------------3----------------|


e|--------------------------------------3---3---3-3---3---3---3---3-3---3--|
B|--------------------------------------3---3---3-3---3---3---3---3-3---3--|
G|-3--5--3---3--3----7--10--7---7--7----0---0---0-0---0---0---0---0-0---0--|
D|-3--5--3---3--3----7--10--7---7--7----0---0---0-0---0---0---0---0-0---0--|
A|-1--3--1---1--1----5--8---5---5--5---------------------------------------|
E|--------------------------------------3---3---3-3---3---3---3---3-3---3--|
 |
e|-------------------------------------------------------------------------|
B|-------------------------------------------------------------------------|
G|-3--5--3-----------7--10--7----------------------------------------------|
D|-3--5--3-----------7--10--7-------3-4-5----------------------------------|
A|-1--3--1-----------5--8---5----------------------------------------------|
E|--------------------------------------------------------3----------------|


Chorus
e|--3----------------------------------------------------------------------|
B|--3----------------------------------------------------------------------|
G|--0---------3--3--------3--3--------3--3---------------------------------|
D|--0---------3--3-3--3---3--3-3--3---3--3-3-------------------------------|
A|------------1--1-3--3---1--1-3--3---1--1-3-------------------------------|
E|--3--------------1--1--------1--1--------1-------------------------------|
 |
e|-------------------------------------------------------------------------|
B|-------------------------------------------------------------------------|
G|-------------------------------------------------------------------------|
D|-------------------------------------------------------------------------|
A|------------1--1--------1--1--------1--1---------------------------------|
E|--3---3--3-------1--1--------1--1--------1-------------------------------|


e|-------------------------------------------------------------------------|
B|-------------------------------------------------------------------------|
G|------------3--3--------3--3--------3--3---------------------------------|
D|--5---5--5--3--3-3--3---3--3-3--3---3--3-3-------------------------------|
A|--5---5--5--1--1-3--3---1--1-3--3---1--1-3-------------------------------|
E|--3---3--3-------1--1--------1--1--------1-------------------------------|
 |
e|-------------------------------------------------------------------------|
B|-------------------------------------------------------------------------|
G|-------------------------------------------------------------------------|
D|-------------------------------------------------------------------------|
A|------------1--1--------1--1--------1--1---------------------------------|
E|--3---3--3-------1--1--------1--1--------1-------------------------------|


e|-------------------------------------------------------------------------|
B|-------------------------------------------------------------------------|
G|------------3--3--------3--3--------3--3---------------------------------|
D|--5---5--5--3--3-3--3---3--3-3--3---3--3-3-------------------------------|
A|--5---5--5--1--1-3--3---1--1-3--3---1--1-3-------------------------------|
E|--3---3--3-------1--1--------1--1--------1-------------------------------|
 |
e|-------------------------------------------------------------------------|
B|-------------------------------------------------------------------------|
G|-------------------------------------------------------------------------|
D|-------------------------------------------------------------------------|
A|------------1--1--------1--1--------1--1---------------------------------|
E|--3---3--3-------1--1--------1--1--------1-------------------------------|


e|-------------------------------------------------------------------------|
B|-------------------------------------------------------------------------|
G|------------3--3--------3--3--------3--3---------------------------------|
D|--5---5--5--3--3-3--3---3--3-3--3---3--3-3-------------------------------|
A|--5---5--5--1--1-3--3---1--1-3--3---1--1-3-------------------------------|
E|--3---3--3-------1--1--------1--1--------1-------------------------------|
 |
e|-------------------------------------------------------------------------|
B|-------------------------------------------------------------------------|
G|-------------------------------------------------------------------------|
D|-------------------------------------------------------------------------|
A|------------1--1--------1--1--------1--1---------------------------------|
E|--3---3--3-------1--1--------1--1--------1-------------------------------|


e|-------------------------------------------------------------------------|
B|-------------------------------------------------------------------------|
G|------------3--3--------3--3--------3--3---------------------------------|
D|--5---5--5--3--3-3--3---3--3-3--3---3--3-3--5----------------------------|
A|--5---5--5--1--1-3--3---1--1-3--3---1--1-3--5----------------------------|
E|--3---3--3-------1--1--------1--1--------1--3----------------------------|
 |
e|-------------------------------------------------------------------------|
B|-------------------------------------------------------------------------|
G|-------------------------------------------------------------------------|
D|-------------------------------------------------------------------------|
A|------------1--1--------1--1--------1--1---------------------------------|
E|--3---3--3-------1--1--------1--1--------1--3----------------------------|

(Rest Of the Song)

Verse (Repeat 3x)
Chorus(Repeat 1x)
Verse (Repeat 3x)


| /  slide up
| \  slide down
| h  hammer-on
| p  pull-off
| ~  vibrato
| +  harmonic
| x  Mute note
===========================================================================
Tap to rate this tab
# A B C D E F G H I J K L M N O P Q R S T U V W X Y Z