Song name
# A B C D E F G H I J K L M N O P Q R S T U V W X Y Z

White Stripes - Goin Back To Memphis tab

this is on blackpool lights. a soledad brothers cover i think (great band).
he use his domino dawson i think turned 2 open E

main riff
|-----------0--|
|-----------0--|
|--------------|
|--------------|
|--------------|
|-----3-2-1----|

durin the yes m'ams:

|-----------------------------------------|
|-----------------------------------------|
|-----------------------------------------|
|---0-0-3-3-0-0-3-3-0-0-3-3-0-0-3-3-------|
|---0-0-3-3-0-0-3-3-0-0-3-3-0-0-3-3-------|
|---0-0-3-3-0-0-3-3-0-0-3-3-0-0-3-3-------|  X4

i dont no the solo 2 it coz wen i play it i just go crazy with the slide

then back to the riff again

|-----------0--|
|-----------0--|
|--------------|
|--------------|
|--------------|
|-----3-2-1----|

then the yes m'am bit


|-----------------------------------------|
|-----------------------------------------|
|-----------------------------------------|
|---0-0-3-3-0-0-3-3-0-0-3-3-0-0-3-3-------|
|---0-0-3-3-0-0-3-3-0-0-3-3-0-0-3-3-------|
|---0-0-3-3-0-0-3-3-0-0-3-3-0-0-3-3-------|  X4

then i think he pushes his whammy up a small bit so it seems about 2 frets higher

then this: (play with slide)

|-12-12-12-12/10-10-12--------|
|-12-12-12-12/10-10-12--------|
|-12-12-12-12/10-10-12--------|
|-12-12-12-12/10-10-12--------|
|-12-12-12-12/10-10-12--------|  X4
|-12-12-12-12/10-10-12--------|

then this:

|----/17--17-17-17-17-17/15---------|
|----/17--17-17-17-17-17/15---------|
|----/17--17-17-17-17-17/15---------|
|----/17--17-17-17-17-17/15---------| X2
|----/17--17-17-17-17-17/15---------|
|----/17--17-17-17-17-17/15---------|


|-12-12-12/10-12-12-15-|
|-12-12-12/10-12-12-15-|
|-12-12-12-12/10-12-15-|
|-12-12-12-12/10-12-15-|
|-12-12-12-12/10-12-15-|
|-12-12-12-12/10-12-15-|

|-10-10-10/8-10-10-13-----------------------|
|-10-10-10/8-10-10-13-----------------------|
|-10-10-10/8-10-10-13-----------------------|
|-10-10-10/8-10-10-13-----------------------|
|-10-10-10/8-10-10-13-----------------------|
|-10-10-10/8-10-10-13-----------------------|

|-------------------------------------------------|
|-------------------------------------------------|
|-------------------------------------------------|
|-----7-7-8-8-5-5-7-7-----------------------------|
|-----7-7-8-8-5-5-7-7-----------------------------|
|-----7-7-8-8-5-5-7-7-----------------------------|X2

|------------------------------------------------|
|------------------------------------------------|
|------------------------------------------------|
|-----7-7-8-8-7-7-7-7-7-8-7-5-3-5-3-2------------|
|-----7-7-8-8-7-7-7-7-7-8-7-5-3-5-3-2------------|
|-----7-7-8-8-7-7-7-7-7-8-7-5-3-5-3-2---  -------|

|----------------------------------------------|
|----------------------------------------------|
|----------------------------------------------|
|---0-0-3-3-0-0-3-3-0-0-3-3-3-3-3-3-3-3-3-3----|
|---0-0-3-3-0-0-3-3-0-0-3-3-3-3-3-3-3-3-3-3----|
|---0-0-3-3-0-0-3-3-0-0-3-3-3-3-3-3-3-3-3-3----|

|-0-0-0-0--0-3-0-3/5-3-0-0h3p0-0-0-0-----------------|
|-0-0-0-0----------------------0-0-0-----------------|
|-0-0-0-0----------------------0-0-0-----------------|
|-0-0-0-0----------------------0-0-0-----------------|
|-0-0-0-0----------------------0-0-0-----------------|
|-0-0-0-0----------------------0-0-0-----------------|
Tap to rate this tab
 
# A B C D E F G H I J K L M N O P Q R S T U V W X Y Z