Song name
# A B C D E F G H I J K L M N O P Q R S T U V W X Y Z

White Stripes - Though I Hear You Calling I Will Not Answer tab

-------------------------------------------------------------------------------	     
Though I Hear You Calling, I Will Not Answer - The white stripes
-------------------------------------------------------------------------------
Tabbed by: Rather_dsahing
Email:ewiniger@gmail.com



e|---------------------------------------------------------------------------|
B|------------------8-7-8-7-8-7---5-----------------------8-7-8-7-8-10-------|
G|---------------------------------------------------------------------------|
D|--------7-7-7-------------------------------------7-7-7--------------------|
A|--------7-7-7-------------------------------------7-7-7--------------------|
E|--------5-5-5-------------------------------------5-5-5--------------------|

e|---------------------------------------------------------------------------|
B|---------------------------------------------------------------------------|
G|---------------------------------------------------------------------------|
D|-7-7-7--101010-------------------------------------------------------------|
A|-5-5-5--8-8-8--7-7-7-7-7-7-------------------------------------------------|
E|---------------5-5-5-5-5-5-------------------------------------------------|
Dont steal
Tap to rate this tab
# A B C D E F G H I J K L M N O P Q R S T U V W X Y Z