Song name
# A B C D E F G H I J K L M N O P Q R S T U V W X Y Z

White Stripes - Party Of Specail Things To Do tab

Main Riff:

|-------------------------|
|-------------------------|
|-------------------------|
|-------------------------|     Play this riff the whole song,
|-------------------------|     With alot of distortion
|---3-3--3-3--3-5-3-------|

BRIDGE:

e|-----------0----------------------------0--------|
B|-------------------------------------------------|
G|----5-----------------5---------3-------------3--|
D|-------------------------------------------------|
A|-3------------------------1----------------------|
E|-------------------------------------------------|
Tap to rate this tab
# A B C D E F G H I J K L M N O P Q R S T U V W X Y Z