Song name
# A B C D E F G H I J K L M N O P Q R S T U V W X Y Z

White Stripes - Whos A Big Baby tab

-------------------------------------------------------------------------------
			     Who's a big baby - The white stripes
-------------------------------------------------------------------------------
Tabbed by:Rather_dashing
Email:ewiniger@gmail.com


Verse
e|---------------------------------------------------------------------------|
B|---------------------------------------------------------------------------|
G|---------------------------------------------------------------------------|
D|---------------------------------------------------------------------------|
A|-----------88-77--------------------8--10--7-7-----------------------------|
E|-3-4--5-5--------------------3-4-5-----------------------------------------|
Chorus
e|---------------------------------------------------------------------------|
B|---------------------------------------------------------------------------|
G|---------------------------------------------------------------------------|
D|---------------------------------------------------------------------------|
A|---------3-3-5-5--0-0------------------------------------------------------|
E|-----3-4-------------------------------------------------------------------|
Bridge
e|---------------------------------------------------------------------------|
B|---------------------------------------------------------------------------|
G|---------------------------------------------------------------------------|
D|---------------------------------------------------------------------------|
A|---------------------------------------------------------------------------|
E|-----------3-4-5-8----10--11--10--8----------------------------------------|

Don't steal
Tap to rate this tab
# A B C D E F G H I J K L M N O P Q R S T U V W X Y Z