Song name
# A B C D E F G H I J K L M N O P Q R S T U V W X Y Z

White Stripes - Lets Shake Hands tab

The White Stripes - Let's Shake Hands

Intro/Verse                    Verse 2
|-------------------------|   |--0-0-0-0-0-0-0-0-0------|
|-------------------------|   |--0-0-0-0-0-0-0-0-0------|
|----------------------2--|   |--1-1-1-1-1-1-1-1-1---2--|
|--2-2-2-2-2-2-2-2-2-5-2--|   |--2-2-2-2-2-2-2-2-2-5-2--|
|--2-2-2-2-2-2-2-2-2-5-0--|   |--2-2-2-2-2-2-2-2-2-5-0--|
|--0-0-0-0-0-0-0-0-0-3----|   |--0-0-0-0-0-0-0-0-0-3----|

Solo
|--5^-5^-5^-5^-5^-5^-5^-5^-5^-5^-5b--------------------------|
|------------------------------------------------------------|
|------------------------------------------------------------|
|------------------------------------2-----------------------|
|------------------------------------2-----------------------|
|------------------------------------0-0-0-0-0-0-0-3-3-0-3^--|

|----3^-0--------------------------------5-5b-5---------|
|------------------------------5-5-8p5-8--------8-8^-8--|
|--2------2-0-2-2^-3^-2-2-2^----------------------------|
|--2-------------------------2--------------------------|
|--0-------------------------2--------------------------|
|----------------------------0--------------------------|

Bridge
|--------------------------------------|
|--------------------------------------|
|--4-4-5-4--4-4-5-4--4-4-5-4--4-4-5-4--|
|--4-4-5-4--4-4-5-4--4-4-5-4--4-4-5-4--|
|--2-2-3-2--2-2-3-2--2-2-3-2--2-2-3-2--|
|--------------------------------------|

Outro
|--------------------3^-3^-3^-0---------------------------------|
|--------------5-3-0------------3-0-----------------------------|
|-----------------------------------2^-2-2-0--------------------|
|--2-x-x-x-x-2-------------------------------2-0-------------2--|
|--2-x-x-x-x-2-----------------------------------2-0---------2--|
|--0-x-x-x-x-0---------------------------------------3-0-3-0-0--|
Tap to rate this tab
 
# A B C D E F G H I J K L M N O P Q R S T U V W X Y Z