Song name
# A B C D E F G H I J K L M N O P Q R S T U V W X Y Z

White Stripes - Red Death At 614 tab

The White Stripes - Red Death At 6:14

Chords								  
A5: 577xxx							
G5: 355xxx								
E5: 022xxx								

*                A5               A5 N.C. *  A5 N.C.  *
  La la la la la la la la la la la  la la la la la la la


Verse:
A5    G5 A5  G5 A5  G5
Whoo!
A5          G5  A5   G5 A5  G5 A5  G5  A5 
What's that she said
            G5  A5   G5 A5  G5 A5  G5  A5
What's that she said
            G5  A5 N.C.
What's that she said with her fingers turnin' blue 
                         * 
And her face was turnin' red

Break:
Chords: A5  G5  A5      G5 A5   E5

Break 2:
|----8--5----------8--5-------|
|---------8b10----------8b10--|
|-----------------------------|
|-7-------------7-------------|
|-7-------------7-------------|
|-5-------------5-------------|

Verse 2:
Whoo!
Was that her dad?
Was that her dad?
Was that her dad with the magic marker
Writing "Little angel" on her head?

Break

Break 3
|--------------------------------------------------------|
|--------------------------------------------------------|
|--------------------------------------------------------|
|--------------------------------------------------------|
|-0-3-4-5-5-5-5-5-5-5-5-0-0-0-0-0-0-0-0------------------|
|---------------------------------------0-0-0-0-3-3-3-3--|
            La la la la la la la la la la la la la la la 

Break

Break 4
|----8--5---5---------------------------|
|---------8----8-5-5h8--5---------------|
|-------------------------7-7b-7-5------|
|-7--------------------------------7-7--|
|-7----------------------------------7--|
|-5----------------------------------5--|

Verse 3:
Whoo!
She must be dead
Well, she must be dead
She must be dead
If the only sound I hear
Are the devils by her bed

Break

Break 5 (Play 2 Times)
|-------------------------------------------------------------------------|
|-------------------------------------------------------------------------|
|-------------------------------------------------------------------------|
|-------------------------------------------------------------------------|
|7-7-7-7-7-7-7-5-7-7-7-7-7-7-7-7-7-7-7-7-7-7-7-5-7-7-7-7-7-7-7-7-7-7-7-7-7|
|5-5-5-5-5-5-5-3-5-5-5-5-5-5-5-5-5-5-5-5-5-5-5-3-5-5-5-5-5-5-5-5-5-5-5-5-5|
                                                         Oh                                   
|----------------------------------|
|----------------------------------|
|----------------------------------|
|----------------------------------|
|-7-7-7-7-7-7-7-7-7-7-7-7-7--------|
|-5-5-5-5-5-5-5-5-5-5-5-5-5-0-3-0--|
                           Oh, well

|----------------------------------|
|----------------------------------|
|----------------------------------|
|----------------------------------|
|-2-2-2-2-2-2-2-2-5-5-5-5-5-5-5-5--|
|-0-0-0-0-0-0-0-0-3-3-3-3-3-3-3-3--|


Solo Guitar 2
|----------5-8-5-5-5-5-8b10-8-8-8-5---------------------------------------|
|8b10-b10-8---------8--------------8-8-8b10-10b8-7b9-7p5-7-5~7b8-7-5b-7b9-|
|-------------------------------------------------------------------------|
|-------------------------------------------------------------------------|
|-------------------------------------------------------------------------|
|-------------------------------------------------------------------------|

|-----------------------------------------5--|
|-7b9-9b7---5-5------8b10-8-5--8b10-8-5-8----|
|---------------7-7--------------------------|
|--------------------------------------------|
|--------------------------------------------|
|--------------------------------------------|

Break

A5 N.C.                    A5 N.C.
   *cough* *cough* *cough*        *cough* *cough* *cough*

Verse then Break

(pickup noise)
La la la la la la
Tap to rate this tab
# A B C D E F G H I J K L M N O P Q R S T U V W X Y Z