Song name
# A B C D E F G H I J K L M N O P Q R S T U V W X Y Z

White Stripes - The Big Three Killed My Baby Live tab

The White Stripes - The Big Three Killed My Baby 
Live Under Blackpool Lights

Intro/Chorus
|-------------------------------|
|-------------------------------|
|-------------------------------|
|--5-------5------3--3-------3--|
|--5-------5------3--3-------3--|
|--3-------3------1--1-------1--|
   The Big Three killed my baby
 
Verse
|-----------------------------------------|
|-----------------------------------------|
|-----------------------------------------|
|--5-5--5---------------------------------|
|--5-5--5---------------------------------|
|--3-3--3---------------------------------|
	  Their ideas make me wanna spit

|-----------------------------------------|
|-----------------------------------------|
|-----------------------------------------|
|--3-3--3---------------------------------|
|--3-3--3---------------------------------|
|--1-1--1---------------------------------|
         A hundred dollars goes down the pit

End of Verse
|-----------------------------------------|
|-----------------------------------------|
|-----------------------------------------|
|----3------3------5-5----3---------------|
|----3------3------5-5----3---------------|
|----1------1------3-3----1---------------|
        Yeah, yeah, yeah!

Chorus 2
|----------------------------------------------------|
|----------------------------------------------------|
|----------------------------------------------------|
|----------------------------------------------------|
|----------------------------------------------------|
|--3-3--3--------------------------------------------|
         Don't let 'em tell you the future's electric

|----------------------------------------------------|
|----------------------------------------------------|
|----------------------------------------------------|
|----------------------------------------------------|
|----------------------------------------------------|
|--5-5--5--------------------------------------------|
           'Cause gasoline's not measured in metric

Verse 3
|---------------------------------------------|
|---------------------------------------------|
|---------------------------------------------|
|---------------------------------------------|
|---------------------------------------------|
|--3~-3~-3-3-3-3-1-1-0---3~-3~-3-3-3-3-1-1-0--|
                And my baby's my common sense
Tap to rate this tab
# A B C D E F G H I J K L M N O P Q R S T U V W X Y Z