Song name
# A B C D E F G H I J K L M N O P Q R S T U V W X Y Z

White Stripes - Apple Blossom Live tab

Artist: The White Stripes
Song: Apple Blossom (live)
Tuning: Standard (low to high: EADGBe)

The rest of the song is the same as CD version but electric
and with a different solo. 
This is from "Under Black Pool Lights" DVD

Jack uses a whammy pedal to gain his unique sound for 
this solo, but if you don't have one, the best way 
to achieve this sound is to use the bridge pickup 
with tone knob turned all the way to zero.

(After second verse)

e|-----------------------------------------------------------|
B|-----------------------------------------------------------|
G|-----------------------------------------------------------|
D|-----------------5-7-777-5-3-2-0-3~------------------------|
A|-5-7-7-7-5-3-2-0-------------------5-7-7-7-5-3-2-3-5-3-2-3-|
E|-----------------------------------------------------------|

e|-----------------|
B|-----------------|
G|-----------------|
D|-----------------|
A|-2-2-2-3-3-2-----|
E|-------------0-3~|

e|-12-12-10-8-7-5--17-17-17-15-13-12-10-|
B|--------------------------------------|
G|--------------------------------------|
D|--------------------------------------|
A|--------------------------------------|
E|--------------------------------------|

e|-10h12-12-12-12-10-8-7-8-10-7-8--7-7-7-8-8-7---0-3~-|
B|----------------------------------------------------|
G|----------------------------------------------------|
D|----------------------------------------------------|
A|----------------------------------------------------|
E|----------------------------------------------------|

End

Key
~ - Vibrato
h - hammer on
Tap to rate this tab
# A B C D E F G H I J K L M N O P Q R S T U V W X Y Z