Song name
# A B C D E F G H I J K L M N O P Q R S T U V W X Y Z

White Stripes - Dont Blame Me Live tab

The White Stripes - Don't Blame Me		             
Live at the Orpheum in Boston	  

Chords:					
D: xx0232							
Cadd9: x32030								
B5: x244xx								
C: x32010				
Em: 022000						
A: x02220							
G: 320003							
E: 022100							
F#5: 244xxx								

Intro
|--------2--------------------------|
|------3---3---------3--------------|
|----2-------2-----0---0---4--------|
|--0-------------2-------2-4--------|
|--------------3-----------2-----2--|
|-----------------------------2-----|

Verse:
D     C     B5
Don't blame me
    Em         A         D    /c /g g
For falling in love with you
G               A      D
Blame all those charms
		  B    E
That melt in your arms
         A      D
But don't blame me

Pre-Chorus:
D     C    B5   (/f# /b)
Blame your kiss
       Em         A        D  /e /f# G
Oh! As sweet as a kiss can be
                A      D
Blame all those charms
                B
That melt in my arms
    E     A     D
But don't blame me

Chorus:
D               F#5
I can't help it 
               B5 (on and off strumming)
If that doggone  moon above
     E
Yeah! Makes me feel
             E
|-----------------0--|
|--------------------|
|-----3p2p0----------|
|--------------------|
|--0--------(0h2)----|
|------------0-------|

                  A   N.C.
Long for one like you
To love

Pre-Chorus:
Blame your kiss
Oh! As sweet as a kiss can be
Blame all those charms
That melt in my arms
But don't blame me

Chorus:
I can't help it
                N.C.  B5   E N.C.
If that doggone moon above

Makes me feel

|---------------0--|
|------------------|
|--4b--3p2p0-------|
|------------------|
|------------------|
|------------0-----|

Long for one like you
To love

Chorus:
Blame your kiss
It's as sweet as a kiss can be
Blame all those charms
That melt in my arms
But don't blame me

Ending
|----------------------------|
|----------------------------|
|----------------------------|
|-------0-----0-2-0---0------|
|--0-0-----0--------2---2-0--|
|----------------------------|
G
Tap to rate this tab
# A B C D E F G H I J K L M N O P Q R S T U V W X Y Z