Song name
# A B C D E F G H I J K L M N O P Q R S T U V W X Y Z

White Stripes - Hotel Yorba Live tab

The White Stripes - Hotel Yorba

Chords:
G5: 355xxx								
C5: x355xx							
D5: x577xx						
G: 320003							
C: x32010						
D: xx0232					
F5: 13xxxx 	

Intro
|----3-------------------------------3--|
|----0-------------------------------0--|
|----0-------------------------------0--|
|--------------0----------0-----0----0--|
|--2-------0h2--------0h2---0h2------2--|
|--3---3-3--------3-3-------------3--3--|

Verse:
G5
I was watchin'
         C5
With one eye on the other side
      D5
I had fifteen people tellin' me to move
      G5
I got movin' on my mind

I found shelter
            C5
Aw, in some thoughts turnin' wheels around
       D5
I said thirty-nine times that I love you
       G5
To the beauty I had found

Chorus:
G
Well, it's one, two, three, four

Take the elevator
C
Hotel Yorba
                      D
Glad to see you later
                            G  C G
All they got inside is vacancy

Alright,

Break:
|----3-----------------------------------------2-------3-2-3-2---3-----3--|
|----0-----------------------0---------0-----------3-------------0-----0--|
|----0------------0----0--0h2---0-3b-3b----0-2-------2-----------0-----0--|
|----------0----0------------------------------------------------0-----0--|
|--2----0h2--0h2----3--------------------------------------------2--3--2--|
|--3-------------------------------------------------------------3--1--3--|

Verse 2:
Well, I've been thinkin'
All about a little place down by the lake
They got a dirty old road leadin' up to the house
How long will it take 'til we're alone
Sittin' on the front porch of that home
Stompin' our feet on the wooden boards
Never gotta worry about lockin' the door

Chorus

Yes, ma'am!

Bridge:
|--3-------------------------------------2-----3-----3--|
|--0---------------------------------(0)-3p0---0-----0--|
|--0----------------0-0h2-3b4--0--0--(0)-2-----0-----0--|
|--0--0--0-----0---------------------(0)-------0-----0--|
|--2-------0h2---3-----------------------------2--3--2--|
|--3-------------------------------------------3--1--3--|

               G
It might sound silly
                C           
Yeah, for me to think childish thoughts like these
        D
Oh, but I'm so tired of actin' tough
          G
Now I'm a-gonna do what I please
             G5
Let's get married
         C5
In a big cathedral by a priest
          D5
'Cause if I'm the man that you love the most
G5
Say, "I do" at least

Chorus
         G5 N.C.
And it's four, five, six, seven

Grab your umbrella
C5 N.C.
Grab hold of me 'cause
                        D5 N.C.
I'm your favorite fella
                            G
All they got inside is vacancy

C   G         C G
  Yes, ma'am!
Tap to rate this tab
# A B C D E F G H I J K L M N O P Q R S T U V W X Y Z