Song name
# A B C D E F G H I J K L M N O P Q R S T U V W X Y Z

White Stripes - Party Of Special Things To Do tab

Help us improve GuitareTab! Take a short survey!
Standard tuning--

/ = slide

Main part

|---------------------------------------------|
|---------------------------------------------|
|-4---6-----4---6-----4---6-------------/6----|
|-4---6-----4---6-----4---6-------------/6----|
|-2---4-----2---4-----2---4-------------/4----|
|-------------------------------2-4-0---------|

Bridge

|---------------------------------------------|
|------6-----------6---------6--------6-------|
|---6----6------4-----4----6---6----4---4-----|
|---------------------------------------------|
|-4----------2----------4---------2-----------|
|---------------------------------------------|



On the main part, you can drop the top note of the power chord if you want, doesn't really matter.

Thanks.
Related for Party Of Special Things To Do tab